ISO-10303-21;
HEADER;
/* RV_Disc_D7mm_W3.4mm_P5mm.step 3D STEP model for use in ECAD systems
 * Copyright (C) 2018, kicad StepUp
 * 
 * This work is licensed under the [Creative Commons CC-BY-SA 4.0 License](https://creativecommons.org/licenses/by-sa/4.0/legalcode), 
 * with the following exception:
 * To the extent that the creation of electronic designs that use 'Licensed Material' can be considered to be 'Adapted Material', 
 * then the copyright holder waives article 3 of the license with respect to these designs and any generated files which use data provided 
 * as part of the 'Licensed Material'.
 * You are free to use the library data in your own projects without the obligation to share your project files under this or any other license agreement.
 * However, if you wish to redistribute these libraries, or parts thereof (including in modified form) as a collection then the exception above does not apply. 
 * Please refer to https://github.com/KiCad/kicad-packages3D/blob/master/LICENSE.md for further clarification of the exception.
 * Disclaimer of Warranties and Limitation of Liability.
 * These libraries are provided in the hope that they will be useful, but are provided without warranty of any kind, express or implied.
 * *USE 3D CAD DATA AT YOUR OWN RISK*
 * *DO NOT RELY UPON ANY INFORMATION FOUND HERE WITHOUT INDEPENDENT VERIFICATION.*
 * 
 */

FILE_DESCRIPTION(
/* description */ ('model of RV_Disc_D7mm_W3.4mm_P5mm'),
/* implementation_level */ '2;1');

FILE_NAME(
/* name */ 'RV_Disc_D7mm_W3.4mm_P5mm.step',
/* time_stamp */ '2018-11-11T21:06:40',
/* author */ ('kicad StepUp','ksu'),
/* organization */ ('FreeCAD'),
/* preprocessor_version */ 'OCC',
/* originating_system */ 'kicad StepUp',
/* authorisation */ '');

FILE_SCHEMA(('AUTOMOTIVE_DESIGN { 1 0 10303 214 1 1 1 1 }'));
ENDSEC;

DATA;
#1 = APPLICATION_PROTOCOL_DEFINITION('international standard',
'automotive_design',2000,#2);
#2 = APPLICATION_CONTEXT(
'core data for automotive mechanical design processes');
#3 = SHAPE_DEFINITION_REPRESENTATION(#4,#10);
#4 = PRODUCT_DEFINITION_SHAPE('','',#5);
#5 = PRODUCT_DEFINITION('design','',#6,#9);
#6 = PRODUCT_DEFINITION_FORMATION('','',#7);
#7 = PRODUCT('RV_Disc_D7mm_W34mm_P5mm','RV_Disc_D7mm_W34mm_P5mm','',(#8)
);
#8 = PRODUCT_CONTEXT('',#2,'mechanical');
#9 = PRODUCT_DEFINITION_CONTEXT('part definition',#2,'design');
#10 = ADVANCED_BREP_SHAPE_REPRESENTATION('',(#11,#15),#384);
#11 = AXIS2_PLACEMENT_3D('',#12,#13,#14);
#12 = CARTESIAN_POINT('',(0.E+000,0.E+000,0.E+000));
#13 = DIRECTION('',(0.E+000,0.E+000,1.));
#14 = DIRECTION('',(1.,0.E+000,-0.E+000));
#15 = MANIFOLD_SOLID_BREP('',#16);
#16 = CLOSED_SHELL('',(#17,#50,#144,#244,#253,#279,#288,#314,#340,#366,
#375));
#17 = ADVANCED_FACE('',(#18),#45,.T.);
#18 = FACE_BOUND('',#19,.F.);
#19 = EDGE_LOOP('',(#20,#30,#37,#38));
#20 = ORIENTED_EDGE('',*,*,#21,.T.);
#21 = EDGE_CURVE('',#22,#24,#26,.T.);
#22 = VERTEX_POINT('',#23);
#23 = CARTESIAN_POINT('',(6.,-0.608536585366,3.53));
#24 = VERTEX_POINT('',#25);
#25 = CARTESIAN_POINT('',(6.,-0.691463414634,3.53));
#26 = LINE('',#27,#28);
#27 = CARTESIAN_POINT('',(6.,1.05,3.53));
#28 = VECTOR('',#29,1.);
#29 = DIRECTION('',(0.E+000,-1.,0.E+000));
#30 = ORIENTED_EDGE('',*,*,#31,.T.);
#31 = EDGE_CURVE('',#24,#24,#32,.T.);
#32 = CIRCLE('',#33,3.5);
#33 = AXIS2_PLACEMENT_3D('',#34,#35,#36);
#34 = CARTESIAN_POINT('',(2.5,-0.691463414634,3.53));
#35 = DIRECTION('',(0.E+000,-1.,0.E+000));
#36 = DIRECTION('',(1.,0.E+000,0.E+000));
#37 = ORIENTED_EDGE('',*,*,#21,.F.);
#38 = ORIENTED_EDGE('',*,*,#39,.F.);
#39 = EDGE_CURVE('',#22,#22,#40,.T.);
#40 = CIRCLE('',#41,3.5);
#41 = AXIS2_PLACEMENT_3D('',#42,#43,#44);
#42 = CARTESIAN_POINT('',(2.5,-0.608536585366,3.53));
#43 = DIRECTION('',(0.E+000,-1.,0.E+000));
#44 = DIRECTION('',(1.,0.E+000,0.E+000));
#45 = CYLINDRICAL_SURFACE('',#46,3.5);
#46 = AXIS2_PLACEMENT_3D('',#47,#48,#49);
#47 = CARTESIAN_POINT('',(2.5,1.05,3.53));
#48 = DIRECTION('',(0.E+000,1.,0.E+000));
#49 = DIRECTION('',(1.,0.E+000,0.E+000));
#50 = ADVANCED_FACE('',(#51,#71),#139,.T.);
#51 = FACE_BOUND('',#52,.F.);
#52 = EDGE_LOOP('',(#53,#54,#63,#70));
#53 = ORIENTED_EDGE('',*,*,#39,.T.);
#54 = ORIENTED_EDGE('',*,*,#55,.T.);
#55 = EDGE_CURVE('',#22,#56,#58,.T.);
#56 = VERTEX_POINT('',#57);
#57 = CARTESIAN_POINT('',(4.341463414634,1.05,3.53));
#58 = CIRCLE('',#59,1.658536585366);
#59 = AXIS2_PLACEMENT_3D('',#60,#61,#62);
#60 = CARTESIAN_POINT('',(4.341463414634,-0.608536585366,3.53));
#61 = DIRECTION('',(0.E+000,0.E+000,1.));
#62 = DIRECTION('',(1.,0.E+000,0.E+000));
#63 = ORIENTED_EDGE('',*,*,#64,.F.);
#64 = EDGE_CURVE('',#56,#56,#65,.T.);
#65 = CIRCLE('',#66,1.841463414634);
#66 = AXIS2_PLACEMENT_3D('',#67,#68,#69);
#67 = CARTESIAN_POINT('',(2.5,1.05,3.53));
#68 = DIRECTION('',(0.E+000,-1.,0.E+000));
#69 = DIRECTION('',(1.,0.E+000,0.E+000));
#70 = ORIENTED_EDGE('',*,*,#55,.F.);
#71 = FACE_BOUND('',#72,.F.);
#72 = EDGE_LOOP('',(#73,#110));
#73 = ORIENTED_EDGE('',*,*,#74,.T.);
#74 = EDGE_CURVE('',#75,#77,#79,.T.);
#75 = VERTEX_POINT('',#76);
#76 = CARTESIAN_POINT('',(0.27,0.E+000,0.984265021559));
#77 = VERTEX_POINT('',#78);
#78 = CARTESIAN_POINT('',(-0.256754319724,8.352975100638E-002,
1.628907068094));
#79 = B_SPLINE_CURVE_WITH_KNOTS('',8,(#80,#81,#82,#83,#84,#85,#86,#87,
#88,#89,#90,#91,#92,#93,#94,#95,#96,#97,#98,#99,#100,#101,#102,#103,
#104,#105,#106,#107,#108,#109),.UNSPECIFIED.,.F.,.F.,(9,7,7,7,9),(
0.E+000,0.108408102947,0.341351258774,0.628554652019,1.),
.UNSPECIFIED.);
#80 = CARTESIAN_POINT('',(0.27,-1.110223024625E-016,0.984265021559));
#81 = CARTESIAN_POINT('',(0.27,-1.292294269861E-002,0.977488922097));
#82 = CARTESIAN_POINT('',(0.269293141279,-2.595088606238E-002,
0.971475907851));
#83 = CARTESIAN_POINT('',(0.26785921115,-3.903467935069E-002,
0.966265162124));
#84 = CARTESIAN_POINT('',(0.265682706471,-5.21192564496E-002,
0.961892564817));
#85 = CARTESIAN_POINT('',(0.262754313816,-6.514485253451E-002,
0.958388918915));
#86 = CARTESIAN_POINT('',(0.259072389652,-7.804822073277E-002,
0.955778176965));
#87 = CARTESIAN_POINT('',(0.254644440507,-9.076384878639E-002,
0.954075667565));
#88 = CARTESIAN_POINT('',(0.238409938416,-0.130001595019,0.951590206166)
);
#89 = CARTESIAN_POINT('',(0.223964136129,-0.155619438882,0.954109327206)
);
#90 = CARTESIAN_POINT('',(0.206332500936,-0.179396084525,0.96090344991)
);
#91 = CARTESIAN_POINT('',(0.18589240933,-0.20074922634,0.971782559404));
#92 = CARTESIAN_POINT('',(0.163146894335,-0.219254029715,0.986384069447)
);
#93 = CARTESIAN_POINT('',(0.138650058804,-0.234650307157,1.004252758923)
);
#94 = CARTESIAN_POINT('',(0.112946502906,-0.246819894962,1.024905912573)
);
#95 = CARTESIAN_POINT('',(5.398913129509E-002,-0.266770068927,
1.076174575722));
#96 = CARTESIAN_POINT('',(2.036405524349E-002,-0.272870398044,
1.107996423488));
#97 = CARTESIAN_POINT('',(-1.342739055945E-002,-0.274050730369,
1.142477756934));
#98 = CARTESIAN_POINT('',(-4.657833124756E-002,-0.270523171921,
1.178808749411));
#99 = CARTESIAN_POINT('',(-7.842877029706E-002,-0.262621820685,
1.21628578813));
#100 = CARTESIAN_POINT('',(-0.108461367027,-0.250726043529,
1.254319608461));
#101 = CARTESIAN_POINT('',(-0.136263415504,-0.23520583278,1.292408314683
));
#102 = CARTESIAN_POINT('',(-0.194080029444,-0.192062631659,
1.378833926044));
#103 = CARTESIAN_POINT('',(-0.222202871542,-0.162335790462,
1.426677556391));
#104 = CARTESIAN_POINT('',(-0.245235867665,-0.127941203349,
1.472799907094));
#105 = CARTESIAN_POINT('',(-0.262473806477,-8.951323703704E-002,
1.516235210921));
#106 = CARTESIAN_POINT('',(-0.27305243725,-4.785157641651E-002,
1.555611504042));
#107 = CARTESIAN_POINT('',(-0.276094202738,-4.03650446994E-003,
1.589143765937));
#108 = CARTESIAN_POINT('',(-0.270779245992,4.041983675738E-002,
1.614377428377));
#109 = CARTESIAN_POINT('',(-0.256754319724,8.352975100638E-002,
1.628907068094));
#110 = ORIENTED_EDGE('',*,*,#111,.T.);
#111 = EDGE_CURVE('',#77,#75,#112,.T.);
#112 = B_SPLINE_CURVE_WITH_KNOTS('',7,(#113,#114,#115,#116,#117,#118,
#119,#120,#121,#122,#123,#124,#125,#126,#127,#128,#129,#130,#131,
#132,#133,#134,#135,#136,#137,#138),.UNSPECIFIED.,.F.,.F.,(8,6,6,6,8
),(0.E+000,0.114769907768,0.329526725149,0.591638599292,1.),
.UNSPECIFIED.);
#113 = CARTESIAN_POINT('',(-0.256754319724,8.352975100638E-002,
1.628907068094));
#114 = CARTESIAN_POINT('',(-0.252616366914,9.624901864289E-002,
1.633193932948));
#115 = CARTESIAN_POINT('',(-0.247712756773,0.108823194829,1.636521074501
));
#116 = CARTESIAN_POINT('',(-0.242044248298,0.121182740009,1.638823705454
));
#117 = CARTESIAN_POINT('',(-0.235623117648,0.133253007792,1.640045160018
));
#118 = CARTESIAN_POINT('',(-0.228474776358,0.144957825101,1.640143157491
));
#119 = CARTESIAN_POINT('',(-0.220639389549,0.156223072321,1.639096065831
));
#120 = CARTESIAN_POINT('',(-0.196332157435,0.187109060067,1.632817048906
));
#121 = CARTESIAN_POINT('',(-0.178275876501,0.205468171101,1.62473212616)
);
#122 = CARTESIAN_POINT('',(-0.158369554869,0.221606701642,1.612680923753
));
#123 = CARTESIAN_POINT('',(-0.137086469551,0.235258870111,1.596994132447
));
#124 = CARTESIAN_POINT('',(-0.114889643222,0.246343028479,1.57819949351)
);
#125 = CARTESIAN_POINT('',(-9.217331069694E-002,0.25488488307,
1.556850135791));
#126 = CARTESIAN_POINT('',(-4.128387196906E-002,0.268389917746,
1.504912901609));
#127 = CARTESIAN_POINT('',(-1.301518963565E-002,0.272147476281,
1.473328710965));
#128 = CARTESIAN_POINT('',(1.503178092181E-002,0.272407436983,
1.439584949924));
#129 = CARTESIAN_POINT('',(4.245933717619E-002,0.269393981139,
1.404476150539));
#130 = CARTESIAN_POINT('',(6.89636160683E-002,0.263328309533,
1.368660934738));
#131 = CARTESIAN_POINT('',(9.429997870485E-002,0.254394779679,
1.33266366936));
#132 = CARTESIAN_POINT('',(0.155540670226,0.224562879701,1.241260733777)
);
#133 = CARTESIAN_POINT('',(0.189344462871,0.199822988458,1.186395082516)
);
#134 = CARTESIAN_POINT('',(0.218864451296,0.169083538917,1.133955853745)
);
#135 = CARTESIAN_POINT('',(0.243081637601,0.132755921116,1.085536195665)
);
#136 = CARTESIAN_POINT('',(0.260655917907,9.146713524806E-002,
1.043040913752));
#137 = CARTESIAN_POINT('',(0.27,4.650191837563E-002,1.00864813858));
#138 = CARTESIAN_POINT('',(0.27,-8.857661480824E-017,0.984265021559));
#139 = TOROIDAL_SURFACE('',#140,1.841463414634,1.658536585366);
#140 = AXIS2_PLACEMENT_3D('',#141,#142,#143);
#141 = CARTESIAN_POINT('',(2.5,-0.608536585366,3.53));
#142 = DIRECTION('',(0.E+000,1.,0.E+000));
#143 = DIRECTION('',(1.,0.E+000,0.E+000));
#144 = ADVANCED_FACE('',(#145,#165),#239,.T.);
#145 = FACE_BOUND('',#146,.T.);
#146 = EDGE_LOOP('',(#147,#148,#157,#164));
#147 = ORIENTED_EDGE('',*,*,#31,.T.);
#148 = ORIENTED_EDGE('',*,*,#149,.T.);
#149 = EDGE_CURVE('',#24,#150,#152,.T.);
#150 = VERTEX_POINT('',#151);
#151 = CARTESIAN_POINT('',(4.341463414634,-2.35,3.53));
#152 = CIRCLE('',#153,1.658536585366);
#153 = AXIS2_PLACEMENT_3D('',#154,#155,#156);
#154 = CARTESIAN_POINT('',(4.341463414634,-0.691463414634,3.53));
#155 = DIRECTION('',(0.E+000,0.E+000,-1.));
#156 = DIRECTION('',(1.,0.E+000,0.E+000));
#157 = ORIENTED_EDGE('',*,*,#158,.F.);
#158 = EDGE_CURVE('',#150,#150,#159,.T.);
#159 = CIRCLE('',#160,1.841463414634);
#160 = AXIS2_PLACEMENT_3D('',#161,#162,#163);
#161 = CARTESIAN_POINT('',(2.5,-2.35,3.53));
#162 = DIRECTION('',(0.E+000,-1.,0.E+000));
#163 = DIRECTION('',(1.,0.E+000,0.E+000));
#164 = ORIENTED_EDGE('',*,*,#149,.F.);
#165 = FACE_BOUND('',#166,.T.);
#166 = EDGE_LOOP('',(#167,#186));
#167 = ORIENTED_EDGE('',*,*,#168,.T.);
#168 = EDGE_CURVE('',#169,#171,#173,.T.);
#169 = VERTEX_POINT('',#170);
#170 = CARTESIAN_POINT('',(5.27,-1.3,1.58558065725));
#171 = VERTEX_POINT('',#172);
#172 = CARTESIAN_POINT('',(5.056294413584,-1.035933835944,1.192587041823
));
#173 = B_SPLINE_CURVE_WITH_KNOTS('',6,(#174,#175,#176,#177,#178,#179,
#180,#181,#182,#183,#184,#185),.UNSPECIFIED.,.F.,.F.,(7,5,7),(
0.E+000,0.685838072332,1.),.UNSPECIFIED.);
#174 = CARTESIAN_POINT('',(5.27,-1.3,1.58558065725));
#175 = CARTESIAN_POINT('',(5.27,-1.255968661246,1.555353068793));
#176 = CARTESIAN_POINT('',(5.261383104615,-1.213278077482,1.517180029748
));
#177 = CARTESIAN_POINT('',(5.24513445075,-1.17358792371,1.473758747906)
);
#178 = CARTESIAN_POINT('',(5.222287830043,-1.138015321906,1.426989944074
));
#179 = CARTESIAN_POINT('',(5.193762173105,-1.107465954916,1.37820332528)
);
#180 = CARTESIAN_POINT('',(5.1452288894,-1.071596772229,1.305884781621)
);
#181 = CARTESIAN_POINT('',(5.128992840886,-1.061583918157,1.283009595046
));
#182 = CARTESIAN_POINT('',(5.111865457552,-1.052917966752,1.260104902164
));
#183 = CARTESIAN_POINT('',(5.093954355978,-1.045693375569,1.237302019715
));
#184 = CARTESIAN_POINT('',(5.075382679748,-1.040003129539,1.214743174158
));
#185 = CARTESIAN_POINT('',(5.056294413584,-1.035933835944,1.192587041823
));
#186 = ORIENTED_EDGE('',*,*,#187,.T.);
#187 = EDGE_CURVE('',#171,#169,#188,.T.);
#188 = B_SPLINE_CURVE_WITH_KNOTS('',7,(#189,#190,#191,#192,#193,#194,
#195,#196,#197,#198,#199,#200,#201,#202,#203,#204,#205,#206,#207,
#208,#209,#210,#211,#212,#213,#214,#215,#216,#217,#218,#219,#220,
#221,#222,#223,#224,#225,#226,#227,#228,#229,#230,#231,#232,#233,
#234,#235,#236,#237,#238),.UNSPECIFIED.,.F.,.F.,(8,6,6,6,6,6,6,6,8),
(0.E+000,0.176143951233,0.2747770127,0.375918443663,0.430878765144,
0.590654660615,0.742607566889,0.869417104039,1.),.UNSPECIFIED.);
#189 = CARTESIAN_POINT('',(5.056294413584,-1.035933835944,1.192587041823
));
#190 = CARTESIAN_POINT('',(5.024730099816,-1.029204861257,1.155949711493
));
#191 = CARTESIAN_POINT('',(4.991781400702,-1.026782494635,1.120370130784
));
#192 = CARTESIAN_POINT('',(4.95805603141,-1.029030914584,1.086522148148)
);
#193 = CARTESIAN_POINT('',(4.924317258368,-1.03625986672,1.055204595065)
);
#194 = CARTESIAN_POINT('',(4.891506820472,-1.048633625844,1.027336988922
));
#195 = CARTESIAN_POINT('',(4.860708152133,-1.066018695145,1.003912238634
));
#196 = CARTESIAN_POINT('',(4.817389689871,-1.100136925855,0.975586147271
));
#197 = CARTESIAN_POINT('',(4.802788974415,-1.113791556088,0.967068838361
));
#198 = CARTESIAN_POINT('',(4.789323161457,-1.128756304979,0.960351751484
));
#199 = CARTESIAN_POINT('',(4.777167095196,-1.144893691967,0.955561991794
));
#200 = CARTESIAN_POINT('',(4.766470264294,-1.162025487317,0.952789931915
));
#201 = CARTESIAN_POINT('',(4.757343472074,-1.179938566098,0.952075619733
));
#202 = CARTESIAN_POINT('',(4.742158288345,-1.217325721958,0.95474943711)
);
#203 = CARTESIAN_POINT('',(4.736180749965,-1.236835448729,0.958242886343
));
#204 = CARTESIAN_POINT('',(4.731978737905,-1.256678354682,0.963854832228
));
#205 = CARTESIAN_POINT('',(4.729551293881,-1.276610615163,0.971499142114
));
#206 = CARTESIAN_POINT('',(4.728847913532,-1.29641457351,0.981046652871)
);
#207 = CARTESIAN_POINT('',(4.729786245216,-1.315908579405,0.992345314115
));
#208 = CARTESIAN_POINT('',(4.733621117366,-1.345289289401,1.012244866753
));
#209 = CARTESIAN_POINT('',(4.735427996535,-1.355499210897,1.01972244062)
);
#210 = CARTESIAN_POINT('',(4.73767637901,-1.36555156816,1.027646697564)
);
#211 = CARTESIAN_POINT('',(4.740350047681,-1.375425965361,1.03599258489)
);
#212 = CARTESIAN_POINT('',(4.743432261383,-1.385104515193,1.044735087159
));
#213 = CARTESIAN_POINT('',(4.746906254281,-1.394571620961,1.053849661941
));
#214 = CARTESIAN_POINT('',(4.761946613574,-1.430681702525,1.090822730723
));
#215 = CARTESIAN_POINT('',(4.776306003383,-1.455636659959,1.121265554517
));
#216 = CARTESIAN_POINT('',(4.793434072338,-1.478364580229,1.154071134818
));
#217 = CARTESIAN_POINT('',(4.812956433921,-1.498648169778,1.188698552376
));
#218 = CARTESIAN_POINT('',(4.834543467561,-1.516324040457,1.224640230916
));
#219 = CARTESIAN_POINT('',(4.85790974734,-1.531243037248,1.261404132952)
);
#220 = CARTESIAN_POINT('',(4.906459042546,-1.554637361533,1.333728650036
));
#221 = CARTESIAN_POINT('',(4.931475832371,-1.563382270615,1.36922855251)
);
#222 = CARTESIAN_POINT('',(4.95762453427,-1.569333133393,1.404541564787)
);
#223 = CARTESIAN_POINT('',(4.984668677477,-1.572312852483,1.439161723311
));
#224 = CARTESIAN_POINT('',(5.01231660935,-1.572110284796,1.472457993138)
);
#225 = CARTESIAN_POINT('',(5.040189242365,-1.568510898366,1.503672098921
));
#226 = CARTESIAN_POINT('',(5.09083045032,-1.555374687847,1.555576947882)
);
#227 = CARTESIAN_POINT('',(5.113677671043,-1.546919811557,1.57715178843)
);
#228 = CARTESIAN_POINT('',(5.136016107426,-1.535900273754,1.596170335181
));
#229 = CARTESIAN_POINT('',(5.157448392474,-1.522286728451,1.612071326623
));
#230 = CARTESIAN_POINT('',(5.177506035201,-1.506157578191,1.624316004679
));
#231 = CARTESIAN_POINT('',(5.195708157153,-1.487777994597,1.632563342924
));
#232 = CARTESIAN_POINT('',(5.228132625966,-1.446825617077,1.641124132196
));
#233 = CARTESIAN_POINT('',(5.242226520349,-1.424136635697,1.641195917289
));
#234 = CARTESIAN_POINT('',(5.253546700971,-1.400037327017,1.636951374108
));
#235 = CARTESIAN_POINT('',(5.261913684507,-1.3751091719,1.62873746778));
#236 = CARTESIAN_POINT('',(5.267355657085,-1.349874330687,1.617099142256
));
#237 = CARTESIAN_POINT('',(5.27,-1.324738325497,1.602563559506));
#238 = CARTESIAN_POINT('',(5.27,-1.3,1.58558065725));
#239 = TOROIDAL_SURFACE('',#240,1.841463414634,1.658536585366);
#240 = AXIS2_PLACEMENT_3D('',#241,#242,#243);
#241 = CARTESIAN_POINT('',(2.5,-0.691463414634,3.53));
#242 = DIRECTION('',(0.E+000,-1.,0.E+000));
#243 = DIRECTION('',(1.,0.E+000,0.E+000));
#244 = ADVANCED_FACE('',(#245),#248,.F.);
#245 = FACE_BOUND('',#246,.F.);
#246 = EDGE_LOOP('',(#247));
#247 = ORIENTED_EDGE('',*,*,#64,.T.);
#248 = PLANE('',#249);
#249 = AXIS2_PLACEMENT_3D('',#250,#251,#252);
#250 = CARTESIAN_POINT('',(2.5,1.05,3.53));
#251 = DIRECTION('',(-0.E+000,-1.,-0.E+000));
#252 = DIRECTION('',(0.E+000,0.E+000,-1.));
#253 = ADVANCED_FACE('',(#254),#274,.T.);
#254 = FACE_BOUND('',#255,.T.);
#255 = EDGE_LOOP('',(#256,#257,#265,#272,#273));
#256 = ORIENTED_EDGE('',*,*,#111,.T.);
#257 = ORIENTED_EDGE('',*,*,#258,.T.);
#258 = EDGE_CURVE('',#75,#259,#261,.T.);
#259 = VERTEX_POINT('',#260);
#260 = CARTESIAN_POINT('',(0.27,-8.589033614938E-033,-2.892));
#261 = LINE('',#262,#263);
#262 = CARTESIAN_POINT('',(0.27,0.E+000,3.53));
#263 = VECTOR('',#264,1.);
#264 = DIRECTION('',(-0.E+000,-0.E+000,-1.));
#265 = ORIENTED_EDGE('',*,*,#266,.T.);
#266 = EDGE_CURVE('',#259,#259,#267,.T.);
#267 = CIRCLE('',#268,0.27);
#268 = AXIS2_PLACEMENT_3D('',#269,#270,#271);
#269 = CARTESIAN_POINT('',(-7.243018313321E-031,5.152639112584E-031,
-2.892));
#270 = DIRECTION('',(1.127201796441E-031,-7.952808902721E-032,1.));
#271 = DIRECTION('',(1.,-1.940196092123E-030,-1.127201796441E-031));
#272 = ORIENTED_EDGE('',*,*,#258,.F.);
#273 = ORIENTED_EDGE('',*,*,#74,.T.);
#274 = CYLINDRICAL_SURFACE('',#275,0.27);
#275 = AXIS2_PLACEMENT_3D('',#276,#277,#278);
#276 = CARTESIAN_POINT('',(0.E+000,0.E+000,3.53));
#277 = DIRECTION('',(0.E+000,0.E+000,1.));
#278 = DIRECTION('',(1.,0.E+000,0.E+000));
#279 = ADVANCED_FACE('',(#280),#283,.T.);
#280 = FACE_BOUND('',#281,.T.);
#281 = EDGE_LOOP('',(#282));
#282 = ORIENTED_EDGE('',*,*,#158,.T.);
#283 = PLANE('',#284);
#284 = AXIS2_PLACEMENT_3D('',#285,#286,#287);
#285 = CARTESIAN_POINT('',(2.5,-2.35,3.53));
#286 = DIRECTION('',(-0.E+000,-1.,-0.E+000));
#287 = DIRECTION('',(0.E+000,0.E+000,-1.));
#288 = ADVANCED_FACE('',(#289),#309,.T.);
#289 = FACE_BOUND('',#290,.T.);
#290 = EDGE_LOOP('',(#291,#292,#300,#307,#308));
#291 = ORIENTED_EDGE('',*,*,#168,.F.);
#292 = ORIENTED_EDGE('',*,*,#293,.T.);
#293 = EDGE_CURVE('',#169,#294,#296,.T.);
#294 = VERTEX_POINT('',#295);
#295 = CARTESIAN_POINT('',(5.27,-1.3,-2.892));
#296 = LINE('',#297,#298);
#297 = CARTESIAN_POINT('',(5.27,-1.3,3.53));
#298 = VECTOR('',#299,1.);
#299 = DIRECTION('',(-0.E+000,-0.E+000,-1.));
#300 = ORIENTED_EDGE('',*,*,#301,.T.);
#301 = EDGE_CURVE('',#294,#294,#302,.T.);
#302 = CIRCLE('',#303,0.27);
#303 = AXIS2_PLACEMENT_3D('',#304,#305,#306);
#304 = CARTESIAN_POINT('',(5.,-1.3,-2.892));
#305 = DIRECTION('',(0.E+000,0.E+000,1.));
#306 = DIRECTION('',(1.,0.E+000,0.E+000));
#307 = ORIENTED_EDGE('',*,*,#293,.F.);
#308 = ORIENTED_EDGE('',*,*,#187,.F.);
#309 = CYLINDRICAL_SURFACE('',#310,0.27);
#310 = AXIS2_PLACEMENT_3D('',#311,#312,#313);
#311 = CARTESIAN_POINT('',(5.,-1.3,3.53));
#312 = DIRECTION('',(0.E+000,0.E+000,1.));
#313 = DIRECTION('',(1.,0.E+000,0.E+000));
#314 = ADVANCED_FACE('',(#315),#335,.T.);
#315 = FACE_BOUND('',#316,.F.);
#316 = EDGE_LOOP('',(#317,#326,#327,#328));
#317 = ORIENTED_EDGE('',*,*,#318,.F.);
#318 = EDGE_CURVE('',#259,#319,#321,.T.);
#319 = VERTEX_POINT('',#320);
#320 = CARTESIAN_POINT('',(0.162,2.095411779493E-031,-3.));
#321 = CIRCLE('',#322,0.108);
#322 = AXIS2_PLACEMENT_3D('',#323,#324,#325);
#323 = CARTESIAN_POINT('',(0.162,2.009521443344E-031,-2.892));
#324 = DIRECTION('',(1.940196092123E-030,1.,7.952808902721E-032));
#325 = DIRECTION('',(1.,-1.940196092123E-030,-1.127201796441E-031));
#326 = ORIENTED_EDGE('',*,*,#266,.T.);
#327 = ORIENTED_EDGE('',*,*,#318,.T.);
#328 = ORIENTED_EDGE('',*,*,#329,.F.);
#329 = EDGE_CURVE('',#319,#319,#330,.T.);
#330 = CIRCLE('',#331,0.162);
#331 = AXIS2_PLACEMENT_3D('',#332,#333,#334);
#332 = CARTESIAN_POINT('',(-7.364756107337E-031,5.238529448733E-031,-3.)
);
#333 = DIRECTION('',(1.127201796441E-031,-7.952808902721E-032,1.));
#334 = DIRECTION('',(1.,-1.940196092123E-030,-1.127201796441E-031));
#335 = TOROIDAL_SURFACE('',#336,0.162,0.108);
#336 = AXIS2_PLACEMENT_3D('',#337,#338,#339);
#337 = CARTESIAN_POINT('',(-7.243018313321E-031,5.152639112584E-031,
-2.892));
#338 = DIRECTION('',(-1.127201796441E-031,7.952808902721E-032,-1.));
#339 = DIRECTION('',(1.,-1.940196092123E-030,-1.127201796441E-031));
#340 = ADVANCED_FACE('',(#341),#361,.T.);
#341 = FACE_BOUND('',#342,.F.);
#342 = EDGE_LOOP('',(#343,#352,#353,#354));
#343 = ORIENTED_EDGE('',*,*,#344,.F.);
#344 = EDGE_CURVE('',#294,#345,#347,.T.);
#345 = VERTEX_POINT('',#346);
#346 = CARTESIAN_POINT('',(5.162,-1.3,-3.));
#347 = CIRCLE('',#348,0.108);
#348 = AXIS2_PLACEMENT_3D('',#349,#350,#351);
#349 = CARTESIAN_POINT('',(5.162,-1.3,-2.892));
#350 = DIRECTION('',(-0.E+000,1.,0.E+000));
#351 = DIRECTION('',(1.,0.E+000,0.E+000));
#352 = ORIENTED_EDGE('',*,*,#301,.T.);
#353 = ORIENTED_EDGE('',*,*,#344,.T.);
#354 = ORIENTED_EDGE('',*,*,#355,.F.);
#355 = EDGE_CURVE('',#345,#345,#356,.T.);
#356 = CIRCLE('',#357,0.162);
#357 = AXIS2_PLACEMENT_3D('',#358,#359,#360);
#358 = CARTESIAN_POINT('',(5.,-1.3,-3.));
#359 = DIRECTION('',(0.E+000,0.E+000,1.));
#360 = DIRECTION('',(1.,0.E+000,0.E+000));
#361 = TOROIDAL_SURFACE('',#362,0.162,0.108);
#362 = AXIS2_PLACEMENT_3D('',#363,#364,#365);
#363 = CARTESIAN_POINT('',(5.,-1.3,-2.892));
#364 = DIRECTION('',(-0.E+000,-0.E+000,-1.));
#365 = DIRECTION('',(1.,0.E+000,0.E+000));
#366 = ADVANCED_FACE('',(#367),#370,.F.);
#367 = FACE_BOUND('',#368,.F.);
#368 = EDGE_LOOP('',(#369));
#369 = ORIENTED_EDGE('',*,*,#329,.T.);
#370 = PLANE('',#371);
#371 = AXIS2_PLACEMENT_3D('',#372,#373,#374);
#372 = CARTESIAN_POINT('',(-1.978356673234E-017,2.854531227236E-017,-3.)
);
#373 = DIRECTION('',(1.127201796441E-031,-7.952808902721E-032,1.));
#374 = DIRECTION('',(1.,0.E+000,-1.127201796441E-031));
#375 = ADVANCED_FACE('',(#376),#379,.F.);
#376 = FACE_BOUND('',#377,.F.);
#377 = EDGE_LOOP('',(#378));
#378 = ORIENTED_EDGE('',*,*,#355,.T.);
#379 = PLANE('',#380);
#380 = AXIS2_PLACEMENT_3D('',#381,#382,#383);
#381 = CARTESIAN_POINT('',(5.,-1.3,-3.));
#382 = DIRECTION('',(0.E+000,0.E+000,1.));
#383 = DIRECTION('',(1.,0.E+000,0.E+000));
#384 = ( GEOMETRIC_REPRESENTATION_CONTEXT(3)
GLOBAL_UNCERTAINTY_ASSIGNED_CONTEXT((#388)) GLOBAL_UNIT_ASSIGNED_CONTEXT
((#385,#386,#387)) REPRESENTATION_CONTEXT('Context #1',
'3D Context with UNIT and UNCERTAINTY') );
#385 = ( LENGTH_UNIT() NAMED_UNIT(*) SI_UNIT(.MILLI.,.METRE.) );
#386 = ( NAMED_UNIT(*) PLANE_ANGLE_UNIT() SI_UNIT($,.RADIAN.) );
#387 = ( NAMED_UNIT(*) SI_UNIT($,.STERADIAN.) SOLID_ANGLE_UNIT() );
#388 = UNCERTAINTY_MEASURE_WITH_UNIT(LENGTH_MEASURE(1.E-007),#385,
'distance_accuracy_value','confusion accuracy');
#389 = PRODUCT_RELATED_PRODUCT_CATEGORY('part',$,(#7));
#390 = MECHANICAL_DESIGN_GEOMETRIC_PRESENTATION_REPRESENTATION('',(#391,
#399,#406,#413,#420,#428,#435,#442,#449,#456,#463),#384);
#391 = STYLED_ITEM('color',(#392),#17);
#392 = PRESENTATION_STYLE_ASSIGNMENT((#393));
#393 = SURFACE_STYLE_USAGE(.BOTH.,#394);
#394 = SURFACE_SIDE_STYLE('',(#395));
#395 = SURFACE_STYLE_FILL_AREA(#396);
#396 = FILL_AREA_STYLE('',(#397));
#397 = FILL_AREA_STYLE_COLOUR('',#398);
#398 = COLOUR_RGB('',0.136999994516,0.402000010014,0.726999998093);
#399 = STYLED_ITEM('color',(#400),#50);
#400 = PRESENTATION_STYLE_ASSIGNMENT((#401));
#401 = SURFACE_STYLE_USAGE(.BOTH.,#402);
#402 = SURFACE_SIDE_STYLE('',(#403));
#403 = SURFACE_STYLE_FILL_AREA(#404);
#404 = FILL_AREA_STYLE('',(#405));
#405 = FILL_AREA_STYLE_COLOUR('',#398);
#406 = STYLED_ITEM('color',(#407),#144);
#407 = PRESENTATION_STYLE_ASSIGNMENT((#408));
#408 = SURFACE_STYLE_USAGE(.BOTH.,#409);
#409 = SURFACE_SIDE_STYLE('',(#410));
#410 = SURFACE_STYLE_FILL_AREA(#411);
#411 = FILL_AREA_STYLE('',(#412));
#412 = FILL_AREA_STYLE_COLOUR('',#398);
#413 = STYLED_ITEM('color',(#414),#244);
#414 = PRESENTATION_STYLE_ASSIGNMENT((#415));
#415 = SURFACE_STYLE_USAGE(.BOTH.,#416);
#416 = SURFACE_SIDE_STYLE('',(#417));
#417 = SURFACE_STYLE_FILL_AREA(#418);
#418 = FILL_AREA_STYLE('',(#419));
#419 = FILL_AREA_STYLE_COLOUR('',#398);
#420 = STYLED_ITEM('color',(#421),#253);
#421 = PRESENTATION_STYLE_ASSIGNMENT((#422));
#422 = SURFACE_STYLE_USAGE(.BOTH.,#423);
#423 = SURFACE_SIDE_STYLE('',(#424));
#424 = SURFACE_STYLE_FILL_AREA(#425);
#425 = FILL_AREA_STYLE('',(#426));
#426 = FILL_AREA_STYLE_COLOUR('',#427);
#427 = COLOUR_RGB('',0.824000000954,0.819999992847,0.78100001812);
#428 = STYLED_ITEM('color',(#429),#279);
#429 = PRESENTATION_STYLE_ASSIGNMENT((#430));
#430 = SURFACE_STYLE_USAGE(.BOTH.,#431);
#431 = SURFACE_SIDE_STYLE('',(#432));
#432 = SURFACE_STYLE_FILL_AREA(#433);
#433 = FILL_AREA_STYLE('',(#434));
#434 = FILL_AREA_STYLE_COLOUR('',#398);
#435 = STYLED_ITEM('color',(#436),#288);
#436 = PRESENTATION_STYLE_ASSIGNMENT((#437));
#437 = SURFACE_STYLE_USAGE(.BOTH.,#438);
#438 = SURFACE_SIDE_STYLE('',(#439));
#439 = SURFACE_STYLE_FILL_AREA(#440);
#440 = FILL_AREA_STYLE('',(#441));
#441 = FILL_AREA_STYLE_COLOUR('',#427);
#442 = STYLED_ITEM('color',(#443),#314);
#443 = PRESENTATION_STYLE_ASSIGNMENT((#444));
#444 = SURFACE_STYLE_USAGE(.BOTH.,#445);
#445 = SURFACE_SIDE_STYLE('',(#446));
#446 = SURFACE_STYLE_FILL_AREA(#447);
#447 = FILL_AREA_STYLE('',(#448));
#448 = FILL_AREA_STYLE_COLOUR('',#427);
#449 = STYLED_ITEM('color',(#450),#340);
#450 = PRESENTATION_STYLE_ASSIGNMENT((#451));
#451 = SURFACE_STYLE_USAGE(.BOTH.,#452);
#452 = SURFACE_SIDE_STYLE('',(#453));
#453 = SURFACE_STYLE_FILL_AREA(#454);
#454 = FILL_AREA_STYLE('',(#455));
#455 = FILL_AREA_STYLE_COLOUR('',#427);
#456 = STYLED_ITEM('color',(#457),#366);
#457 = PRESENTATION_STYLE_ASSIGNMENT((#458));
#458 = SURFACE_STYLE_USAGE(.BOTH.,#459);
#459 = SURFACE_SIDE_STYLE('',(#460));
#460 = SURFACE_STYLE_FILL_AREA(#461);
#461 = FILL_AREA_STYLE('',(#462));
#462 = FILL_AREA_STYLE_COLOUR('',#427);
#463 = STYLED_ITEM('color',(#464),#375);
#464 = PRESENTATION_STYLE_ASSIGNMENT((#465));
#465 = SURFACE_STYLE_USAGE(.BOTH.,#466);
#466 = SURFACE_SIDE_STYLE('',(#467));
#467 = SURFACE_STYLE_FILL_AREA(#468);
#468 = FILL_AREA_STYLE('',(#469));
#469 = FILL_AREA_STYLE_COLOUR('',#427);
ENDSEC;
END-ISO-10303-21;
