0
SECTION
2
HEADER
9
$ACADVER
1
AC1009
9
$HANDSEED
5
7c5
9
$PDMODE
70
3
9
$PDSIZE
40
-3
0
ENDSEC
0
SECTION
2
TABLES
0
TABLE
2
VPORT
70
2
0
VPORT
2
*Active
70
0
10
0
20
0
11
1
21
1
12
-1
22
1
13
0
23
0
14
0.5
24
0.5
15
10
25
10
16
0
26
0
36
1
17
0
27
0
37
0
40
1
41
1
42
1
43
0
44
0
50
0
51
0
71
0
72
1000
73
1
74
3
75
0
76
0
77
0
78
0
0
ENDTAB
0
TABLE
2
LTYPE
70
1
0
LTYPE
2
Continuous
70
0
3
Solid line
72
65
73
0
40
0
0
LTYPE
2
ByLayer
70
0
3

72
65
73
0
40
0
0
LTYPE
2
ByBlock
70
0
3

72
65
73
0
40
0
0
ENDTAB
0
TABLE
2
LAYER
70
1
0
LAYER
2
LEICA_DISTO_ID
70
0
62
1
6
Continuous
0
LAYER
2
LEICA_DISTO_3D
70
0
62
5
6
Continuous
0
LAYER
2
LEICA_DISTO_POINT_ENTITY
70
0
62
6
6
Continuous
0
ENDTAB
0
TABLE
2
STYLE
70
1
0
STYLE
2
Standard
3
simplex
70
0
71
0
40
0
41
1
42
0
50
0
0
ENDTAB
0
TABLE
2
VIEW
70
1
0
ENDTAB
0
TABLE
2
UCS
0
ENDTAB
0
TABLE
2
APPID
70
1
0
APPID
2
ACAD
70
0
0
ENDTAB
0
TABLE
2
DIMSTYLE
70
2
0
DIMSTYLE
2
Standard
70
0
3

4

5

6

7

40
1
41
1
42
1
43
1
44
0
45
0
46
0
47
0
48
0
140
2.5
141
2.5
142
0
143
0
144
1
145
0
146
1
147
0
71
0
72
1000
73
1
74
3
75
0
76
0
77
0
78
0
170
0
171
3
172
1
173
0
174
0
175
0
176
0
177
0
178
0
0
ENDTAB
0
TABLE
2
BLOCK_RECORD
70
1
0
BLOCK_RECORD
2
single_point
0
BLOCK_RECORD
2
RH
0
BLOCK_RECORD
2
SP
0
BLOCK_RECORD
2
*Model_Space
0
BLOCK_RECORD
2
*Paper_Space
0
ENDTAB
0
ENDSEC
0
SECTION
2
BLOCKS
0
ENDSEC
0
SECTION
2
ENTITIES
0
POINT
5
65
100
AcDbEntity
8
LEICA_DISTO_POINT_ENTITY
62
6
6
ByLayer
100
AcDbPoint
10
0.000000
20
0.000000
30
-1.078038
39
0
210
0
220
0
230
1
0
POINT
5
66
100
AcDbEntity
8
LEICA_DISTO_POINT_ENTITY
62
6
6
ByLayer
100
AcDbPoint
10
-0.028899
20
0.001331
30
-1.056596
39
0
210
0
220
0
230
1
0
POINT
5
67
100
AcDbEntity
8
LEICA_DISTO_POINT_ENTITY
62
6
6
ByLayer
100
AcDbPoint
10
-0.047738
20
0.016460
30
-0.287508
39
0
210
0
220
0
230
1
0
POINT
5
68
100
AcDbEntity
8
LEICA_DISTO_POINT_ENTITY
62
6
6
ByLayer
100
AcDbPoint
10
-0.116359
20
0.066894
30
-0.289240
39
0
210
0
220
0
230
1
0
POINT
5
69
100
AcDbEntity
8
LEICA_DISTO_POINT_ENTITY
62
6
6
ByLayer
100
AcDbPoint
10
0.345130
20
-0.277057
30
0.286172
39
0
210
0
220
0
230
1
0
POINT
5
6a
100
AcDbEntity
8
LEICA_DISTO_POINT_ENTITY
62
6
6
ByLayer
100
AcDbPoint
10
0.819021
20
-0.633955
30
-0.273577
39
0
210
0
220
0
230
1
0
POINT
5
6b
100
AcDbEntity
8
LEICA_DISTO_POINT_ENTITY
62
6
6
ByLayer
100
AcDbPoint
10
0.753216
20
-0.582009
30
-0.276937
39
0
210
0
220
0
230
1
0
POINT
5
6c
100
AcDbEntity
8
LEICA_DISTO_POINT_ENTITY
62
6
6
ByLayer
100
AcDbPoint
10
0.766856
20
-0.589669
30
-1.066861
39
0
210
0
220
0
230
1
0
POINT
5
6d
100
AcDbEntity
8
LEICA_DISTO_POINT_ENTITY
62
6
6
ByLayer
100
AcDbPoint
10
1.080163
20
-0.827625
30
-1.062321
39
0
210
0
220
0
230
1
0
POINT
5
6e
100
AcDbEntity
8
LEICA_DISTO_POINT_ENTITY
62
6
6
ByLayer
100
AcDbPoint
10
1.074358
20
-0.825525
30
-0.661871
39
0
210
0
220
0
230
1
0
POINT
5
6f
100
AcDbEntity
8
LEICA_DISTO_POINT_ENTITY
62
6
6
ByLayer
100
AcDbPoint
10
0.761090
20
-0.586704
30
-0.674419
39
0
210
0
220
0
230
1
0
LINE
100
AcDbEntity
8
LEICA_DISTO_3D
62
256
6
ByLayer
5
70
100
AcDbLine
10
0.000000
20
0.000000
30
-1.078038
11
-0.028899
21
0.001331
31
-1.056596
39
0
210
0
220
0
230
1
0
LINE
100
AcDbEntity
8
LEICA_DISTO_3D
62
256
6
ByLayer
5
71
100
AcDbLine
10
-0.028899
20
0.001331
30
-1.056596
11
-0.047738
21
0.016460
31
-0.287508
39
0
210
0
220
0
230
1
0
LINE
100
AcDbEntity
8
LEICA_DISTO_3D
62
256
6
ByLayer
5
72
100
AcDbLine
10
-0.047738
20
0.016460
30
-0.287508
11
-0.116359
21
0.066894
31
-0.289240
39
0
210
0
220
0
230
1
0
LINE
100
AcDbEntity
8
LEICA_DISTO_3D
62
256
6
ByLayer
5
73
100
AcDbLine
10
-0.116359
20
0.066894
30
-0.289240
11
0.345130
21
-0.277057
31
0.286172
39
0
210
0
220
0
230
1
0
LINE
100
AcDbEntity
8
LEICA_DISTO_3D
62
256
6
ByLayer
5
74
100
AcDbLine
10
0.345130
20
-0.277057
30
0.286172
11
0.819021
21
-0.633955
31
-0.273577
39
0
210
0
220
0
230
1
0
LINE
100
AcDbEntity
8
LEICA_DISTO_3D
62
256
6
ByLayer
5
75
100
AcDbLine
10
0.819021
20
-0.633955
30
-0.273577
11
0.753216
21
-0.582009
31
-0.276937
39
0
210
0
220
0
230
1
0
LINE
100
AcDbEntity
8
LEICA_DISTO_3D
62
256
6
ByLayer
5
76
100
AcDbLine
10
0.753216
20
-0.582009
30
-0.276937
11
0.766856
21
-0.589669
31
-1.066861
39
0
210
0
220
0
230
1
0
LINE
100
AcDbEntity
8
LEICA_DISTO_3D
62
256
6
ByLayer
5
77
100
AcDbLine
10
0.766856
20
-0.589669
30
-1.066861
11
1.080163
21
-0.827625
31
-1.062321
39
0
210
0
220
0
230
1
0
LINE
100
AcDbEntity
8
LEICA_DISTO_3D
62
256
6
ByLayer
5
78
100
AcDbLine
10
1.080163
20
-0.827625
30
-1.062321
11
1.074358
21
-0.825525
31
-0.661871
39
0
210
0
220
0
230
1
0
LINE
100
AcDbEntity
8
LEICA_DISTO_3D
62
256
6
ByLayer
5
79
100
AcDbLine
10
1.074358
20
-0.825525
30
-0.661871
11
0.761090
21
-0.586704
31
-0.674419
39
0
210
0
220
0
230
1
0
TEXT
100
AcDbEntity
8
LEICA_DISTO_ID
62
256
6
ByLayer
5
7a
100
AcDbText
1
1 (IMG_20160506_121212.jpg)
10
0.000000
20
0.000000
30
-1.078038
40
0.100000
41
1
50
0
51
0
7
Standard
11
0.000000
21
0.000000
31
-1.078038
210
0
220
0
230
1
72
0
100
AcDbText
73
1
0
TEXT
100
AcDbEntity
8
LEICA_DISTO_ID
62
256
6
ByLayer
5
7b
100
AcDbText
1
2 (IMG_20160506_121238.jpg)
10
-0.028899
20
0.001331
30
-1.056596
40
0.100000
41
1
50
0
51
0
7
Standard
11
-0.028899
21
0.001331
31
-1.056596
210
0
220
0
230
1
72
0
100
AcDbText
73
1
0
TEXT
100
AcDbEntity
8
LEICA_DISTO_ID
62
256
6
ByLayer
5
7c
100
AcDbText
1
3 (IMG_20160506_121308.jpg)
10
-0.047738
20
0.016460
30
-0.287508
40
0.100000
41
1
50
0
51
0
7
Standard
11
-0.047738
21
0.016460
31
-0.287508
210
0
220
0
230
1
72
0
100
AcDbText
73
1
0
TEXT
100
AcDbEntity
8
LEICA_DISTO_ID
62
256
6
ByLayer
5
7d
100
AcDbText
1
4 (IMG_20160506_121333.jpg)
10
-0.116359
20
0.066894
30
-0.289240
40
0.100000
41
1
50
0
51
0
7
Standard
11
-0.116359
21
0.066894
31
-0.289240
210
0
220
0
230
1
72
0
100
AcDbText
73
1
0
TEXT
100
AcDbEntity
8
LEICA_DISTO_ID
62
256
6
ByLayer
5
7e
100
AcDbText
1
5 (IMG_20160506_121402.jpg)
10
0.345130
20
-0.277057
30
0.286172
40
0.100000
41
1
50
0
51
0
7
Standard
11
0.345130
21
-0.277057
31
0.286172
210
0
220
0
230
1
72
0
100
AcDbText
73
1
0
TEXT
100
AcDbEntity
8
LEICA_DISTO_ID
62
256
6
ByLayer
5
7f
100
AcDbText
1
6 (IMG_20160506_121441.jpg)
10
0.819021
20
-0.633955
30
-0.273577
40
0.100000
41
1
50
0
51
0
7
Standard
11
0.819021
21
-0.633955
31
-0.273577
210
0
220
0
230
1
72
0
100
AcDbText
73
1
0
TEXT
100
AcDbEntity
8
LEICA_DISTO_ID
62
256
6
ByLayer
5
80
100
AcDbText
1
7 (IMG_20160506_121455.jpg)
10
0.753216
20
-0.582009
30
-0.276937
40
0.100000
41
1
50
0
51
0
7
Standard
11
0.753216
21
-0.582009
31
-0.276937
210
0
220
0
230
1
72
0
100
AcDbText
73
1
0
TEXT
100
AcDbEntity
8
LEICA_DISTO_ID
62
256
6
ByLayer
5
81
100
AcDbText
1
8 (IMG_20160506_121517.jpg)
10
0.766856
20
-0.589669
30
-1.066861
40
0.100000
41
1
50
0
51
0
7
Standard
11
0.766856
21
-0.589669
31
-1.066861
210
0
220
0
230
1
72
0
100
AcDbText
73
1
0
TEXT
100
AcDbEntity
8
LEICA_DISTO_ID
62
256
6
ByLayer
5
82
100
AcDbText
1
9 (IMG_20160506_121553.jpg)
10
1.080163
20
-0.827625
30
-1.062321
40
0.100000
41
1
50
0
51
0
7
Standard
11
1.080163
21
-0.827625
31
-1.062321
210
0
220
0
230
1
72
0
100
AcDbText
73
1
0
TEXT
100
AcDbEntity
8
LEICA_DISTO_ID
62
256
6
ByLayer
5
83
100
AcDbText
1
10 (IMG_20160506_121613.jpg)
10
1.074358
20
-0.825525
30
-0.661871
40
0.100000
41
1
50
0
51
0
7
Standard
11
1.074358
21
-0.825525
31
-0.661871
210
0
220
0
230
1
72
0
100
AcDbText
73
1
0
TEXT
100
AcDbEntity
8
LEICA_DISTO_ID
62
256
6
ByLayer
5
84
100
AcDbText
1
11 (IMG_20160506_121633.jpg)
10
0.761090
20
-0.586704
30
-0.674419
40
0.100000
41
1
50
0
51
0
7
Standard
11
0.761090
21
-0.586704
31
-0.674419
210
0
220
0
230
1
72
0
100
AcDbText
73
1
0
ENDSEC
0
EOF
