  0
SECTION
  2
HEADER
  9
$ACADVER
  1
AC1015
  9
$ACADMAINTVER
 70
    20
  9
$DWGCODEPAGE
  3
ANSI_1252
  9
$INSBASE
 10
0.0
 20
0.0
 30
0.0
  9
$EXTMIN
 10
879.6745075641903
 20
654.7028629742153
 30
-0.0015258207003583
  9
$EXTMAX
 10
2799.597315431024
 20
2112.337712855651
 30
0.0000000349246037
  9
$LIMMIN
 10
0.0
 20
0.0
  9
$LIMMAX
 10
420.0
 20
297.0
  9
$ORTHOMODE
 70
     1
  9
$REGENMODE
 70
     1
  9
$FILLMODE
 70
     1
  9
$QTEXTMODE
 70
     0
  9
$MIRRTEXT
 70
     0
  9
$LTSCALE
 40
1.0
  9
$ATTMODE
 70
     1
  9
$TEXTSIZE
 40
12.15407026003595
  9
$TRACEWID
 40
1.0
  9
$TEXTSTYLE
  7
Standard
  9
$CLAYER
  8
0
  9
$CELTYPE
  6
ByLayer
  9
$CECOLOR
 62
   256
  9
$CELTSCALE
 40
1.0
  9
$DISPSILH
 70
     0
  9
$DIMSCALE
 40
1.0
  9
$DIMASZ
 40
2.5
  9
$DIMEXO
 40
0.625
  9
$DIMDLI
 40
3.75
  9
$DIMRND
 40
0.0
  9
$DIMDLE
 40
0.0
  9
$DIMEXE
 40
1.25
  9
$DIMTP
 40
0.0
  9
$DIMTM
 40
0.0
  9
$DIMTXT
 40
2.5
  9
$DIMCEN
 40
2.5
  9
$DIMTSZ
 40
0.0
  9
$DIMTOL
 70
     0
  9
$DIMLIM
 70
     0
  9
$DIMTIH
 70
     0
  9
$DIMTOH
 70
     0
  9
$DIMSE1
 70
     0
  9
$DIMSE2
 70
     0
  9
$DIMTAD
 70
     1
  9
$DIMZIN
 70
     8
  9
$DIMBLK
  1

  9
$DIMASO
 70
     1
  9
$DIMSHO
 70
     1
  9
$DIMPOST
  1

  9
$DIMAPOST
  1

  9
$DIMALT
 70
     0
  9
$DIMALTD
 70
     3
  9
$DIMALTF
 40
0.03937007874016
  9
$DIMLFAC
 40
1.0
  9
$DIMTOFL
 70
     1
  9
$DIMTVP
 40
0.0
  9
$DIMTIX
 70
     0
  9
$DIMSOXD
 70
     0
  9
$DIMSAH
 70
     0
  9
$DIMBLK1
  1

  9
$DIMBLK2
  1

  9
$DIMSTYLE
  2
ISO-25
  9
$DIMCLRD
 70
     0
  9
$DIMCLRE
 70
     0
  9
$DIMCLRT
 70
     0
  9
$DIMTFAC
 40
1.0
  9
$DIMGAP
 40
0.625
  9
$DIMJUST
 70
     0
  9
$DIMSD1
 70
     0
  9
$DIMSD2
 70
     0
  9
$DIMTOLJ
 70
     0
  9
$DIMTZIN
 70
     8
  9
$DIMALTZ
 70
     0
  9
$DIMALTTZ
 70
     0
  9
$DIMUPT
 70
     0
  9
$DIMDEC
 70
     2
  9
$DIMTDEC
 70
     2
  9
$DIMALTU
 70
     2
  9
$DIMALTTD
 70
     3
  9
$DIMTXSTY
  7
Standard
  9
$DIMAUNIT
 70
     0
  9
$DIMADEC
 70
     0
  9
$DIMALTRND
 40
0.0
  9
$DIMAZIN
 70
     0
  9
$DIMDSEP
 70
    44
  9
$DIMATFIT
 70
     3
  9
$DIMFRAC
 70
     0
  9
$DIMLDRBLK
  1

  9
$DIMLUNIT
 70
     2
  9
$DIMLWD
 70
    -2
  9
$DIMLWE
 70
    -2
  9
$DIMTMOVE
 70
     0
  9
$LUNITS
 70
     2
  9
$LUPREC
 70
     4
  9
$SKETCHINC
 40
1.0
  9
$FILLETRAD
 40
0.0
  9
$AUNITS
 70
     0
  9
$AUPREC
 70
     0
  9
$MENU
  1
.
  9
$ELEVATION
 40
0.0
  9
$PELEVATION
 40
0.0
  9
$THICKNESS
 40
0.0
  9
$LIMCHECK
 70
     0
  9
$CHAMFERA
 40
0.0
  9
$CHAMFERB
 40
0.0
  9
$CHAMFERC
 40
0.0
  9
$CHAMFERD
 40
0.0
  9
$SKPOLY
 70
     0
  9
$TDCREATE
 40
2458901.312170324
  9
$TDUCREATE
 40
2458901.270503658
  9
$TDUPDATE
 40
2458901.533973866
  9
$TDUUPDATE
 40
2458901.492307199
  9
$TDINDWG
 40
0.0669426157
  9
$TDUSRTIMER
 40
0.0669424074
  9
$USRTIMER
 70
     1
  9
$ANGBASE
 50
0.0
  9
$ANGDIR
 70
     0
  9
$PDMODE
 70
     0
  9
$PDSIZE
 40
0.0
  9
$PLINEWID
 40
0.0
  9
$SPLFRAME
 70
     0
  9
$SPLINETYPE
 70
     6
  9
$SPLINESEGS
 70
     8
  9
$HANDSEED
  5
7D7
  9
$SURFTAB1
 70
     6
  9
$SURFTAB2
 70
     6
  9
$SURFTYPE
 70
     6
  9
$SURFU
 70
     6
  9
$SURFV
 70
     6
  9
$UCSBASE
  2

  9
$UCSNAME
  2

  9
$UCSORG
 10
0.0
 20
0.0
 30
0.0
  9
$UCSXDIR
 10
1.0
 20
0.0
 30
0.0
  9
$UCSYDIR
 10
0.0
 20
1.0
 30
0.0
  9
$UCSORTHOREF
  2

  9
$UCSORTHOVIEW
 70
     0
  9
$UCSORGTOP
 10
0.0
 20
0.0
 30
0.0
  9
$UCSORGBOTTOM
 10
0.0
 20
0.0
 30
0.0
  9
$UCSORGLEFT
 10
0.0
 20
0.0
 30
0.0
  9
$UCSORGRIGHT
 10
0.0
 20
0.0
 30
0.0
  9
$UCSORGFRONT
 10
0.0
 20
0.0
 30
0.0
  9
$UCSORGBACK
 10
0.0
 20
0.0
 30
0.0
  9
$PUCSBASE
  2

  9
$PUCSNAME
  2

  9
$PUCSORG
 10
0.0
 20
0.0
 30
0.0
  9
$PUCSXDIR
 10
1.0
 20
0.0
 30
0.0
  9
$PUCSYDIR
 10
0.0
 20
1.0
 30
0.0
  9
$PUCSORTHOREF
  2

  9
$PUCSORTHOVIEW
 70
     0
  9
$PUCSORGTOP
 10
0.0
 20
0.0
 30
0.0
  9
$PUCSORGBOTTOM
 10
0.0
 20
0.0
 30
0.0
  9
$PUCSORGLEFT
 10
0.0
 20
0.0
 30
0.0
  9
$PUCSORGRIGHT
 10
0.0
 20
0.0
 30
0.0
  9
$PUCSORGFRONT
 10
0.0
 20
0.0
 30
0.0
  9
$PUCSORGBACK
 10
0.0
 20
0.0
 30
0.0
  9
$USERI1
 70
     0
  9
$USERI2
 70
     0
  9
$USERI3
 70
     0
  9
$USERI4
 70
     0
  9
$USERI5
 70
     0
  9
$USERR1
 40
0.0
  9
$USERR2
 40
0.0
  9
$USERR3
 40
0.0
  9
$USERR4
 40
0.0
  9
$USERR5
 40
0.0
  9
$WORLDVIEW
 70
     1
  9
$SHADEDGE
 70
     3
  9
$SHADEDIF
 70
    70
  9
$TILEMODE
 70
     1
  9
$MAXACTVP
 70
    64
  9
$PINSBASE
 10
0.0
 20
0.0
 30
0.0
  9
$PLIMCHECK
 70
     0
  9
$PEXTMIN
 10
0.0
 20
0.0
 30
0.0
  9
$PEXTMAX
 10
0.0
 20
0.0
 30
0.0
  9
$PLIMMIN
 10
0.0
 20
0.0
  9
$PLIMMAX
 10
12.0
 20
9.0
  9
$UNITMODE
 70
     0
  9
$VISRETAIN
 70
     1
  9
$PLINEGEN
 70
     0
  9
$PSLTSCALE
 70
     1
  9
$TREEDEPTH
 70
  3020
  9
$CMLSTYLE
  2
Standard
  9
$CMLJUST
 70
     0
  9
$CMLSCALE
 40
20.0
  9
$PROXYGRAPHICS
 70
     1
  9
$MEASUREMENT
 70
     1
  9
$CELWEIGHT
370
    -1
  9
$ENDCAPS
280
     0
  9
$JOINSTYLE
280
     0
  9
$LWDISPLAY
290
     0
  9
$INSUNITS
 70
     4
  9
$HYPERLINKBASE
  1

  9
$STYLESHEET
  1

  9
$XEDIT
290
     1
  9
$CEPSNTYPE
380
     0
  9
$PSTYLEMODE
290
     1
  9
$FINGERPRINTGUID
  2
{0B8B5C12-8860-482A-92C9-E196A5E9C80A}
  9
$VERSIONGUID
  2
{ACD2E253-5A00-48C1-B456-7A5E1FABD267}
  9
$EXTNAMES
290
     1
  9
$PSVPSCALE
 40
0.0
  9
$OLESTARTUP
290
     0
  0
ENDSEC
  0
SECTION
  2
CLASSES
  0
CLASS
  1
ACDBDICTIONARYWDFLT
  2
AcDbDictionaryWithDefault
  3
ObjectDBX Classes
 90
        0
280
     0
281
     0
  0
CLASS
  1
ACDBPLACEHOLDER
  2
AcDbPlaceHolder
  3
ObjectDBX Classes
 90
        0
280
     0
281
     0
  0
CLASS
  1
LAYOUT
  2
AcDbLayout
  3
ObjectDBX Classes
 90
        0
280
     0
281
     0
  0
CLASS
  1
DICTIONARYVAR
  2
AcDbDictionaryVar
  3
ObjectDBX Classes
 90
        0
280
     0
281
     0
  0
CLASS
  1
TABLESTYLE
  2
AcDbTableStyle
  3
ObjectDBX Classes
 90
     4095
280
     0
281
     0
  0
CLASS
  1
MATERIAL
  2
AcDbMaterial
  3
ObjectDBX Classes
 90
     1153
280
     0
281
     0
  0
CLASS
  1
VISUALSTYLE
  2
AcDbVisualStyle
  3
ObjectDBX Classes
 90
     4095
280
     0
281
     0
  0
CLASS
  1
SCALE
  2
AcDbScale
  3
ObjectDBX Classes
 90
     1153
280
     0
281
     0
  0
CLASS
  1
MLEADERSTYLE
  2
AcDbMLeaderStyle
  3
ACDB_MLEADERSTYLE_CLASS
 90
     4095
280
     0
281
     0
  0
CLASS
  1
CELLSTYLEMAP
  2
AcDbCellStyleMap
  3
ObjectDBX Classes
 90
     1152
280
     0
281
     0
  0
CLASS
  1
EXACXREFPANELOBJECT
  2
ExAcXREFPanelObject
  3
EXAC_ESW
 90
    33793
280
     0
281
     0
  0
CLASS
  1
NPOCOLLECTION
  2
AcDbImpNonPersistentObjectsCollection
  3
ObjectDBX Classes
 90
    33921
280
     0
281
     0
  0
CLASS
  1
LAYER_INDEX
  2
AcDbLayerIndex
  3
ObjectDBX Classes
 90
    32768
280
     0
281
     0
  0
CLASS
  1
SPATIAL_INDEX
  2
AcDbSpatialIndex
  3
ObjectDBX Classes
 90
    32768
280
     0
281
     0
  0
CLASS
  1
IDBUFFER
  2
AcDbIdBuffer
  3
ObjectDBX Classes
 90
    32768
280
     0
281
     0
  0
CLASS
  1
SORTENTSTABLE
  2
AcDbSortentsTable
  3
ObjectDBX Classes
 90
        0
280
     0
281
     0
  0
ENDSEC
  0
SECTION
  2
TABLES
  0
TABLE
  2
VPORT
  5
8
330
0
100
AcDbSymbolTable
 70
     1
  0
VPORT
  5
EA
330
8
100
AcDbSymbolTableRecord
100
AcDbViewportTableRecord
  2
*Active
 70
     0
 10
0.0
 20
0.0
 11
1.0
 21
1.0
 12
1839.635911497607
 22
1383.520287914933
 13
0.0
 23
0.0
 14
10.0
 24
10.0
 15
10.0
 25
10.0
 16
0.0
 26
0.0
 36
1.0
 17
0.0
 27
0.0
 37
0.0
 40
1468.146639664234
 41
2.21179302045728
 42
50.0
 43
0.0
 44
0.0
 50
0.0
 51
0.0
 71
     0
 72
  1000
 73
     1
 74
     3
 75
     0
 76
     1
 77
     0
 78
     0
281
     0
 65
     1
110
0.0
120
0.0
130
0.0
111
1.0
121
0.0
131
0.0
112
0.0
122
1.0
132
0.0
 79
     0
146
0.0
1001
ACAD_NAV_VCDISPLAY
1070
     3
  0
ENDTAB
  0
TABLE
  2
LTYPE
  5
5
330
0
100
AcDbSymbolTable
 70
     2
  0
LTYPE
  5
14
330
5
100
AcDbSymbolTableRecord
100
AcDbLinetypeTableRecord
  2
ByBlock
 70
     0
  3

 72
    65
 73
     0
 40
0.0
  0
LTYPE
  5
15
330
5
100
AcDbSymbolTableRecord
100
AcDbLinetypeTableRecord
  2
ByLayer
 70
     0
  3

 72
    65
 73
     0
 40
0.0
  0
LTYPE
  5
16
330
5
100
AcDbSymbolTableRecord
100
AcDbLinetypeTableRecord
  2
Continuous
 70
     0
  3
Solid line
 72
    65
 73
     0
 40
0.0
  0
ENDTAB
  0
TABLE
  2
LAYER
  5
2
102
{ACAD_XDICTIONARY
360
1FF
102
}
330
0
100
AcDbSymbolTable
 70
     1
  0
LAYER
  5
10
102
{ACAD_XDICTIONARY
360
13C
102
}
330
2
100
AcDbSymbolTableRecord
100
AcDbLayerTableRecord
  2
0
 70
     0
 62
     7
  6
Continuous
370
    -3
390
F
  0
ENDTAB
  0
TABLE
  2
STYLE
  5
3
330
0
100
AcDbSymbolTable
 70
     2
  0
STYLE
  5
11
330
3
100
AcDbSymbolTableRecord
100
AcDbTextStyleTableRecord
  2
Standard
 70
     0
 40
0.0
 41
1.0
 50
0.0
 71
     0
 42
12.15407026003595
  3
ARIAL.TTF
  4

1001
ACAD
1000
Arial
1071
       34
  0
STYLE
  5
132
330
3
100
AcDbSymbolTableRecord
100
AcDbTextStyleTableRecord
  2
Annotativa
 70
     0
 40
0.0
 41
1.0
 50
0.0
 71
     0
 42
2.5
  3
ARIAL.TTF
  4

1001
AcadAnnotative
1000
AnnotativeData
1002
{
1070
     1
1070
     1
1002
}
1001
ACAD
1000
Arial
1071
       34
  0
ENDTAB
  0
TABLE
  2
VIEW
  5
6
330
0
100
AcDbSymbolTable
 70
     0
  0
ENDTAB
  0
TABLE
  2
UCS
  5
7
330
0
100
AcDbSymbolTable
 70
     0
  0
ENDTAB
  0
TABLE
  2
APPID
  5
9
330
0
100
AcDbSymbolTable
 70
    11
  0
APPID
  5
12
330
9
100
AcDbSymbolTableRecord
100
AcDbRegAppTableRecord
  2
ACAD
 70
     0
  0
APPID
  5
9E
330
9
100
AcDbSymbolTableRecord
100
AcDbRegAppTableRecord
  2
ACAD_PSEXT
 70
     0
  0
APPID
  5
133
330
9
100
AcDbSymbolTableRecord
100
AcDbRegAppTableRecord
  2
AcadAnnoPO
 70
     0
  0
APPID
  5
134
330
9
100
AcDbSymbolTableRecord
100
AcDbRegAppTableRecord
  2
AcadAnnotative
 70
     0
  0
APPID
  5
135
330
9
100
AcDbSymbolTableRecord
100
AcDbRegAppTableRecord
  2
ACAD_DSTYLE_DIMJAG
 70
     0
  0
APPID
  5
136
330
9
100
AcDbSymbolTableRecord
100
AcDbRegAppTableRecord
  2
ACAD_DSTYLE_DIMTALN
 70
     0
  0
APPID
  5
165
330
9
100
AcDbSymbolTableRecord
100
AcDbRegAppTableRecord
  2
ACAD_MLEADERVER
 70
     0
  0
APPID
  5
217
330
9
100
AcDbSymbolTableRecord
100
AcDbRegAppTableRecord
  2
ACAD_NAV_VCDISPLAY
 70
     0
  0
APPID
  5
21F
330
9
100
AcDbSymbolTableRecord
100
AcDbRegAppTableRecord
  2
GradientColor1ACI
 70
     0
  0
APPID
  5
220
330
9
100
AcDbSymbolTableRecord
100
AcDbRegAppTableRecord
  2
GradientColor2ACI
 70
     0
  0
APPID
  5
234
330
9
100
AcDbSymbolTableRecord
100
AcDbRegAppTableRecord
  2
ACAD_EXEMPT_FROM_CAD_STANDARDS
 70
     0
  0
ENDTAB
  0
TABLE
  2
DIMSTYLE
  5
A
330
0
100
AcDbSymbolTable
 70
     3
100
AcDbDimStyleTable
 71
     2
340
27
340
137
  0
DIMSTYLE
105
1B0
330
A
100
AcDbSymbolTableRecord
100
AcDbDimStyleTableRecord
  2
Standard
 70
     0
340
11
  0
DIMSTYLE
105
137
330
A
100
AcDbSymbolTableRecord
100
AcDbDimStyleTableRecord
  2
Annotativa
 70
     0
 40
0.0
 41
2.5
 42
0.625
 43
3.75
 44
1.25
 73
     0
 74
     0
 77
     1
 78
     8
140
2.5
141
2.5
143
0.03937007874016
147
0.625
171
     3
172
     1
271
     2
272
     2
274
     3
278
    44
283
     0
284
     8
340
11
1001
AcadAnnotative
1000
AnnotativeData
1002
{
1070
     1
1070
     1
1002
}
1001
ACAD_DSTYLE_DIMJAG
1070
   388
1040
1.5
1001
ACAD_DSTYLE_DIMTALN
1070
   392
1070
     0
  0
DIMSTYLE
105
27
330
A
100
AcDbSymbolTableRecord
100
AcDbDimStyleTableRecord
  2
ISO-25
 70
     0
 41
2.5
 42
0.625
 43
3.75
 44
1.25
 73
     0
 74
     0
 77
     1
 78
     8
140
2.5
141
2.5
143
0.03937007874016
147
0.625
171
     3
172
     1
271
     2
272
     2
274
     3
278
    44
283
     0
284
     8
340
11
  0
ENDTAB
  0
TABLE
  2
BLOCK_RECORD
  5
1
330
0
100
AcDbSymbolTable
 70
     1
  0
BLOCK_RECORD
  5
1F
102
{ACAD_XDICTIONARY
360
1CE
102
}
330
1
100
AcDbSymbolTableRecord
100
AcDbBlockTableRecord
  2
*Model_Space
340
22
  0
BLOCK_RECORD
  5
D2
330
1
100
AcDbSymbolTableRecord
100
AcDbBlockTableRecord
  2
*Paper_Space
340
D3
  0
BLOCK_RECORD
  5
D6
330
1
100
AcDbSymbolTableRecord
100
AcDbBlockTableRecord
  2
*Paper_Space0
340
D7
  0
ENDTAB
  0
ENDSEC
  0
SECTION
  2
BLOCKS
  0
BLOCK
  5
20
330
1F
100
AcDbEntity
  8
0
100
AcDbBlockBegin
  2
*Model_Space
 70
     0
 10
0.0
 20
0.0
 30
0.0
  3
*Model_Space
  1

  0
ENDBLK
  5
21
330
1F
100
AcDbEntity
  8
0
100
AcDbBlockEnd
  0
BLOCK
  5
D4
330
D2
100
AcDbEntity
 67
     1
  8
0
100
AcDbBlockBegin
  2
*Paper_Space
 70
     0
 10
0.0
 20
0.0
 30
0.0
  3
*Paper_Space
  1

  0
ENDBLK
  5
D5
330
D2
100
AcDbEntity
 67
     1
  8
0
100
AcDbBlockEnd
  0
BLOCK
  5
D8
330
D6
100
AcDbEntity
 67
     1
  8
0
100
AcDbBlockBegin
  2
*Paper_Space0
 70
     0
 10
0.0
 20
0.0
 30
0.0
  3
*Paper_Space0
  1

  0
ENDBLK
  5
D9
330
D6
100
AcDbEntity
 67
     1
  8
0
100
AcDbBlockEnd
  0
ENDSEC
  0
SECTION
  2
ENTITIES
  0
LWPOLYLINE
  5
21E
102
{ACAD_REACTORS
330
221
102
}
330
1F
100
AcDbEntity
  8
0
100
AcDbPolyline
 90
        4
 70
     1
 43
0.0
 10
902.802588475304
 20
2032.273246473731
 10
982.8025884753042
 20
2032.273246473731
 10
982.8025884753042
 20
2112.273246473731
 10
902.802588475304
 20
2112.273246473731
  0
HATCH
  5
221
330
1F
100
AcDbEntity
  8
0
100
AcDbHatch
 10
0.0
 20
0.0
 30
0.0
210
0.0
220
0.0
230
1.0
  2
ANSI31
 70
     0
 71
     1
 91
        1
 92
        1
 93
        4
 72
     1
 10
902.802588475304
 20
2032.273246473731
 11
982.8025884753042
 21
2032.273246473731
 72
     1
 10
982.8025884753042
 20
2032.273246473731
 11
982.8025884753042
 21
2112.273246473731
 72
     1
 10
982.8025884753042
 20
2112.273246473731
 11
902.802588475304
 21
2112.273246473731
 72
     1
 10
902.802588475304
 20
2112.273246473731
 11
902.802588475304
 21
2032.273246473731
 97
        1
330
21E
 75
     1
 76
     1
 52
0.0
 41
1.0
 77
     0
 78
     1
 53
45.0
 43
0.0
 44
0.0
 45
-2.245064030267287
 46
2.245064030267287
 79
     0
 98
        1
 10
-6319.618119327128
 20
-11547.30098856405
1001
GradientColor1ACI
1070
     5
1001
GradientColor2ACI
1070
     2
1001
ACAD
1010
0.0
1020
0.0
1030
0.0
  0
LWPOLYLINE
  5
223
102
{ACAD_REACTORS
330
224
102
}
330
1F
100
AcDbEntity
  8
0
100
AcDbPolyline
 90
        4
 70
     1
 43
0.0
 10
1041.957998982431
 20
2032.273246473731
 10
1121.95799898243
 20
2032.273246473731
 10
1121.95799898243
 20
2112.273246473731
 10
1041.957998982431
 20
2112.273246473731
  0
HATCH
  5
224
330
1F
100
AcDbEntity
  8
0
100
AcDbHatch
 10
0.0
 20
0.0
 30
0.0
210
0.0
220
0.0
230
1.0
  2
ANSI32
 70
     0
 71
     1
 91
        1
 92
        1
 93
        4
 72
     1
 10
1041.957998982431
 20
2032.273246473731
 11
1121.95799898243
 21
2032.273246473731
 72
     1
 10
1121.95799898243
 20
2032.273246473731
 11
1121.95799898243
 21
2112.273246473731
 72
     1
 10
1121.95799898243
 20
2112.273246473731
 11
1041.957998982431
 21
2112.273246473731
 72
     1
 10
1041.957998982431
 20
2112.273246473731
 11
1041.957998982431
 21
2032.273246473731
 97
        1
330
223
 75
     1
 76
     1
 52
0.0
 41
1.0
 77
     0
 78
     2
 53
45.0
 43
0.0
 44
0.0
 45
-6.735192090801865
 46
6.735192090801866
 79
     0
 53
45.0
 43
4.49013
 44
0.0
 45
-6.735192090801865
 46
6.735192090801866
 79
     0
 98
        1
 10
-6319.618119327128
 20
-11547.30098856405
1001
GradientColor1ACI
1070
     5
1001
GradientColor2ACI
1070
     2
1001
ACAD
1010
0.0
1020
0.0
1030
0.0
  0
LWPOLYLINE
  5
225
102
{ACAD_REACTORS
330
226
102
}
330
1F
100
AcDbEntity
  8
0
100
AcDbPolyline
 90
        4
 70
     1
 43
0.0
 10
1181.113409489557
 20
2032.273246473731
 10
1261.113409489557
 20
2032.273246473731
 10
1261.113409489557
 20
2112.273246473731
 10
1181.113409489557
 20
2112.273246473731
  0
HATCH
  5
226
330
1F
100
AcDbEntity
  8
0
100
AcDbHatch
 10
0.0
 20
0.0
 30
0.0
210
0.0
220
0.0
230
1.0
  2
ANSI33
 70
     0
 71
     1
 91
        1
 92
        1
 93
        4
 72
     1
 10
1181.113409489557
 20
2032.273246473731
 11
1261.113409489557
 21
2032.273246473731
 72
     1
 10
1261.113409489557
 20
2032.273246473731
 11
1261.113409489557
 21
2112.273246473731
 72
     1
 10
1261.113409489557
 20
2112.273246473731
 11
1181.113409489557
 21
2112.273246473731
 72
     1
 10
1181.113409489557
 20
2112.273246473731
 11
1181.113409489557
 21
2032.273246473731
 97
        1
330
225
 75
     1
 76
     1
 52
0.0
 41
1.0
 77
     0
 78
     2
 53
45.0
 43
0.0
 44
0.0
 45
-4.490128060534575
 46
4.490128060534575
 79
     0
 53
45.0
 43
4.49013
 44
0.0
 45
-4.490128060534575
 46
4.490128060534575
 79
     2
 49
3.174999999999998
 49
-1.587499999999999
 98
        1
 10
-6319.618119327128
 20
-11547.30098856405
1001
GradientColor1ACI
1070
     5
1001
GradientColor2ACI
1070
     2
1001
ACAD
1010
0.0
1020
0.0
1030
0.0
  0
LWPOLYLINE
  5
227
102
{ACAD_REACTORS
330
22A
102
}
330
1F
100
AcDbEntity
  8
0
100
AcDbPolyline
 90
        4
 70
     1
 43
0.0
 10
1320.268819996683
 20
2032.273246473731
 10
1400.268819996683
 20
2032.273246473731
 10
1400.268819996683
 20
2112.273246473731
 10
1320.268819996683
 20
2112.273246473731
  0
LWPOLYLINE
  5
228
102
{ACAD_REACTORS
330
22F
102
}
330
1F
100
AcDbEntity
  8
0
100
AcDbPolyline
 90
        4
 70
     1
 43
0.0
 10
1459.42423050381
 20
2032.273246473731
 10
1539.424230503809
 20
2032.273246473731
 10
1539.424230503809
 20
2112.273246473731
 10
1459.42423050381
 20
2112.273246473731
  0
LWPOLYLINE
  5
229
102
{ACAD_REACTORS
330
230
102
}
330
1F
100
AcDbEntity
  8
0
100
AcDbPolyline
 90
        4
 70
     1
 43
0.0
 10
1598.579641010936
 20
2032.273246473731
 10
1678.579641010936
 20
2032.273246473731
 10
1678.579641010936
 20
2112.273246473731
 10
1598.579641010936
 20
2112.273246473731
  0
HATCH
  5
22A
330
1F
100
AcDbEntity
  8
0
100
AcDbHatch
 10
0.0
 20
0.0
 30
0.0
210
0.0
220
0.0
230
1.0
  2
ANSI34
 70
     0
 71
     1
 91
        1
 92
        1
 93
        4
 72
     1
 10
1320.268819996683
 20
2032.273246473731
 11
1400.268819996683
 21
2032.273246473731
 72
     1
 10
1400.268819996683
 20
2032.273246473731
 11
1400.268819996683
 21
2112.273246473731
 72
     1
 10
1400.268819996683
 20
2112.273246473731
 11
1320.268819996683
 21
2112.273246473731
 72
     1
 10
1320.268819996683
 20
2112.273246473731
 11
1320.268819996683
 21
2032.273246473731
 97
        1
330
227
 75
     1
 76
     1
 52
0.0
 41
1.0
 77
     0
 78
     4
 53
45.0
 43
0.0
 44
0.0
 45
-13.47038418160373
 46
13.47038418160373
 79
     0
 53
45.0
 43
4.49013
 44
0.0
 45
-13.47038418160373
 46
13.47038418160373
 79
     0
 53
45.0
 43
8.980260000000003
 44
0.0
 45
-13.47038418160373
 46
13.47038418160373
 79
     0
 53
45.0
 43
13.4704
 44
0.0
 45
-13.47038418160373
 46
13.47038418160373
 79
     0
 98
        1
 10
-6319.618119327128
 20
-11547.30098856405
1001
GradientColor1ACI
1070
     5
1001
GradientColor2ACI
1070
     2
1001
ACAD
1010
0.0
1020
0.0
1030
0.0
  0
LWPOLYLINE
  5
22B
102
{ACAD_REACTORS
330
231
102
}
330
1F
100
AcDbEntity
  8
0
100
AcDbPolyline
 90
        4
 70
     1
 43
0.0
 10
1737.735051518062
 20
2032.273246473731
 10
1817.735051518062
 20
2032.273246473731
 10
1817.735051518062
 20
2112.273246473731
 10
1737.735051518062
 20
2112.273246473731
  0
LWPOLYLINE
  5
22C
102
{ACAD_REACTORS
330
232
102
}
330
1F
100
AcDbEntity
  8
0
100
AcDbPolyline
 90
        4
 70
     1
 43
0.0
 10
1876.890462025189
 20
2032.273246473731
 10
1956.890462025189
 20
2032.273246473731
 10
1956.890462025189
 20
2112.273246473731
 10
1876.890462025189
 20
2112.273246473731
  0
HATCH
  5
22F
330
1F
100
AcDbEntity
  8
0
100
AcDbHatch
 10
0.0
 20
0.0
 30
0.0
210
0.0
220
0.0
230
1.0
  2
ANSI35
 70
     0
 71
     1
 91
        1
 92
        1
 93
        4
 72
     1
 10
1459.42423050381
 20
2032.273246473731
 11
1539.424230503809
 21
2032.273246473731
 72
     1
 10
1539.424230503809
 20
2032.273246473731
 11
1539.424230503809
 21
2112.273246473731
 72
     1
 10
1539.424230503809
 20
2112.273246473731
 11
1459.42423050381
 21
2112.273246473731
 72
     1
 10
1459.42423050381
 20
2112.273246473731
 11
1459.42423050381
 21
2032.273246473731
 97
        1
330
228
 75
     1
 76
     1
 52
0.0
 41
1.0
 77
     0
 78
     2
 53
45.0
 43
0.0
 44
0.0
 45
-4.490128060534575
 46
4.490128060534575
 79
     0
 53
45.0
 43
4.49013
 44
0.0
 45
-4.490128060534575
 46
4.490128060534575
 79
     4
 49
7.9375
 49
-1.587499999999999
 49
0.0
 49
-1.587499999999999
 98
        1
 10
-6319.618119327128
 20
-11547.30098856405
1001
GradientColor1ACI
1070
     5
1001
GradientColor2ACI
1070
     2
1001
ACAD
1010
0.0
1020
0.0
1030
0.0
  0
HATCH
  5
230
330
1F
100
AcDbEntity
  8
0
100
AcDbHatch
 10
0.0
 20
0.0
 30
0.0
210
0.0
220
0.0
230
1.0
  2
ANSI36
 70
     0
 71
     1
 91
        1
 92
        1
 93
        4
 72
     1
 10
1598.579641010936
 20
2032.273246473731
 11
1678.579641010936
 21
2032.273246473731
 72
     1
 10
1678.579641010936
 20
2032.273246473731
 11
1678.579641010936
 21
2112.273246473731
 72
     1
 10
1678.579641010936
 20
2112.273246473731
 11
1598.579641010936
 21
2112.273246473731
 72
     1
 10
1598.579641010936
 20
2112.273246473731
 11
1598.579641010936
 21
2032.273246473731
 97
        1
330
229
 75
     1
 76
     1
 52
0.0
 41
1.0
 77
     0
 78
     1
 53
45.0
 43
0.0
 44
0.0
 45
1.683798022700466
 46
6.173926083235043
 79
     4
 49
7.9375
 49
-1.587499999999999
 49
0.0
 49
-1.587499999999999
 98
        1
 10
-6319.618119327128
 20
-11547.30098856405
1001
GradientColor1ACI
1070
     5
1001
GradientColor2ACI
1070
     2
1001
ACAD
1010
0.0
1020
0.0
1030
0.0
  0
HATCH
  5
231
330
1F
100
AcDbEntity
  8
0
100
AcDbHatch
 10
0.0
 20
0.0
 30
0.0
210
0.0
220
0.0
230
1.0
  2
ANSI37
 70
     0
 71
     1
 91
        1
 92
        1
 93
        4
 72
     1
 10
1737.735051518062
 20
2032.273246473731
 11
1817.735051518062
 21
2032.273246473731
 72
     1
 10
1817.735051518062
 20
2032.273246473731
 11
1817.735051518062
 21
2112.273246473731
 72
     1
 10
1817.735051518062
 20
2112.273246473731
 11
1737.735051518062
 21
2112.273246473731
 72
     1
 10
1737.735051518062
 20
2112.273246473731
 11
1737.735051518062
 21
2032.273246473731
 97
        1
330
22B
 75
     1
 76
     1
 52
0.0
 41
1.0
 77
     0
 78
     2
 53
45.0
 43
0.0
 44
0.0
 45
-2.245064030267287
 46
2.245064030267287
 79
     0
 53
135.0
 43
0.0
 44
0.0
 45
-2.245064030267287
 46
-2.245064030267287
 79
     0
 98
        1
 10
-6319.618119327128
 20
-11547.30098856405
1001
GradientColor1ACI
1070
     5
1001
GradientColor2ACI
1070
     2
1001
ACAD
1010
0.0
1020
0.0
1030
0.0
  0
HATCH
  5
232
330
1F
100
AcDbEntity
  8
0
100
AcDbHatch
 10
0.0
 20
0.0
 30
0.0
210
0.0
220
0.0
230
1.0
  2
ANSI38
 70
     0
 71
     1
 91
        1
 92
        1
 93
        4
 72
     1
 10
1876.890462025189
 20
2032.273246473731
 11
1956.890462025189
 21
2032.273246473731
 72
     1
 10
1956.890462025189
 20
2032.273246473731
 11
1956.890462025189
 21
2112.273246473731
 72
     1
 10
1956.890462025189
 20
2112.273246473731
 11
1876.890462025189
 21
2112.273246473731
 72
     1
 10
1876.890462025189
 20
2112.273246473731
 11
1876.890462025189
 21
2032.273246473731
 97
        1
330
22C
 75
     1
 76
     1
 52
0.0
 41
1.0
 77
     0
 78
     2
 53
45.0
 43
0.0
 44
0.0
 45
-2.245064030267287
 46
2.245064030267287
 79
     0
 53
135.0
 43
0.0
 44
0.0
 45
-6.735192090801863
 46
2.245064030267287
 79
     2
 49
7.9375
 49
-4.7625
 98
        1
 10
-6319.618119327128
 20
-11547.30098856405
1001
GradientColor1ACI
1070
     5
1001
GradientColor2ACI
1070
     2
1001
ACAD
1010
0.0
1020
0.0
1030
0.0
  0
TEXT
  5
236
330
1F
100
AcDbEntity
  8
0
100
AcDbText
 10
899.4908558695744
 20
1999.422676921948
 30
0.0
 40
18.0
  1
ANSI31
 72
     1
 11
942.8025884753042
 21
2008.422676921949
 31
0.0
100
AcDbText
 73
     2
  0
TEXT
  5
237
330
1F
100
AcDbEntity
  8
0
100
AcDbText
 10
1038.6462663767
 20
1999.422676921948
 30
0.0
 40
18.0
  1
ANSI32
 72
     1
 11
1081.95799898243
 21
2008.422676921949
 31
0.0
100
AcDbText
 73
     2
  0
TEXT
  5
238
330
1F
100
AcDbEntity
  8
0
100
AcDbText
 10
1177.801676883827
 20
1999.422676921948
 30
0.0
 40
18.0
  1
ANSI33
 72
     1
 11
1221.113409489557
 21
2008.422676921949
 31
0.0
100
AcDbText
 73
     2
  0
TEXT
  5
239
330
1F
100
AcDbEntity
  8
0
100
AcDbText
 10
1316.957087390953
 20
1999.422676921948
 30
0.0
 40
18.0
  1
ANSI34
 72
     1
 11
1360.268819996683
 21
2008.422676921949
 31
0.0
100
AcDbText
 73
     2
  0
TEXT
  5
23A
330
1F
100
AcDbEntity
  8
0
100
AcDbText
 10
1456.11249789808
 20
1999.422676921948
 30
0.0
 40
18.0
  1
ANSI35
 72
     1
 11
1499.42423050381
 21
2008.422676921949
 31
0.0
100
AcDbText
 73
     2
  0
TEXT
  5
23B
330
1F
100
AcDbEntity
  8
0
100
AcDbText
 10
1595.267908405206
 20
1999.422676921948
 30
0.0
 40
18.0
  1
ANSI36
 72
     1
 11
1638.579641010936
 21
2008.422676921949
 31
0.0
100
AcDbText
 73
     2
  0
TEXT
  5
23C
330
1F
100
AcDbEntity
  8
0
100
AcDbText
 10
1734.423318912332
 20
1999.422676921948
 30
0.0
 40
18.0
  1
ANSI37
 72
     1
 11
1777.735051518062
 21
2008.422676921949
 31
0.0
100
AcDbText
 73
     2
  0
TEXT
  5
23D
330
1F
100
AcDbEntity
  8
0
100
AcDbText
 10
1873.578729419459
 20
1999.422676921948
 30
0.0
 40
18.0
  1
ANSI38
 72
     1
 11
1916.890462025189
 21
2008.422676921949
 31
0.0
100
AcDbText
 73
     2
  0
LWPOLYLINE
  5
288
330
1F
100
AcDbEntity
  8
0
100
AcDbPolyline
 90
        4
 70
     1
 43
0.0
 10
902.802588475304
 20
1809.055601744392
 10
982.8025884753042
 20
1809.055601744392
 10
982.8025884753042
 20
1889.055601744392
 10
902.802588475304
 20
1889.055601744392
  0
LWPOLYLINE
  5
28A
330
1F
100
AcDbEntity
  8
0
100
AcDbPolyline
 90
        4
 70
     1
 43
0.0
 10
1041.957998982431
 20
1809.055601744392
 10
1121.95799898243
 20
1809.055601744392
 10
1121.95799898243
 20
1889.055601744392
 10
1041.957998982431
 20
1889.055601744392
  0
LWPOLYLINE
  5
28C
330
1F
100
AcDbEntity
  8
0
100
AcDbPolyline
 90
        4
 70
     1
 43
0.0
 10
1181.113409489557
 20
1809.055601744392
 10
1261.113409489557
 20
1809.055601744392
 10
1261.113409489557
 20
1889.055601744392
 10
1181.113409489557
 20
1889.055601744392
  0
LWPOLYLINE
  5
28E
330
1F
100
AcDbEntity
  8
0
100
AcDbPolyline
 90
        4
 70
     1
 43
0.0
 10
1320.268819996683
 20
1809.055601744392
 10
1400.268819996683
 20
1809.055601744392
 10
1400.268819996683
 20
1889.055601744392
 10
1320.268819996683
 20
1889.055601744392
  0
LWPOLYLINE
  5
290
102
{ACAD_REACTORS
330
2A3
102
}
330
1F
100
AcDbEntity
  8
0
100
AcDbPolyline
 90
        4
 70
     1
 43
0.0
 10
1459.42423050381
 20
1809.055601744392
 10
1539.424230503809
 20
1809.055601744392
 10
1539.424230503809
 20
1889.055601744392
 10
1459.42423050381
 20
1889.055601744392
  0
LWPOLYLINE
  5
292
102
{ACAD_REACTORS
330
2A4
102
}
330
1F
100
AcDbEntity
  8
0
100
AcDbPolyline
 90
        4
 70
     1
 43
0.0
 10
1598.579641010936
 20
1809.055601744392
 10
1678.579641010936
 20
1809.055601744392
 10
1678.579641010936
 20
1889.055601744392
 10
1598.579641010936
 20
1889.055601744392
  0
LWPOLYLINE
  5
294
102
{ACAD_REACTORS
330
2A5
102
}
330
1F
100
AcDbEntity
  8
0
100
AcDbPolyline
 90
        4
 70
     1
 43
0.0
 10
1737.735051518062
 20
1809.055601744392
 10
1817.735051518062
 20
1809.055601744392
 10
1817.735051518062
 20
1889.055601744392
 10
1737.735051518062
 20
1889.055601744392
  0
LWPOLYLINE
  5
295
102
{ACAD_REACTORS
330
2B2
102
}
330
1F
100
AcDbEntity
  8
0
100
AcDbPolyline
 90
        4
 70
     1
 43
0.0
 10
1876.890462025189
 20
1809.055601744392
 10
1956.890462025189
 20
1809.055601744392
 10
1956.890462025189
 20
1889.055601744392
 10
1876.890462025189
 20
1889.055601744392
  0
LWPOLYLINE
  5
296
102
{ACAD_REACTORS
330
2B3
102
}
330
1F
100
AcDbEntity
  8
0
100
AcDbPolyline
 90
        4
 70
     1
 43
0.0
 10
2016.045872532315
 20
1809.055601744392
 10
2096.045872532315
 20
1809.055601744392
 10
2096.045872532315
 20
1889.055601744392
 10
2016.045872532315
 20
1889.055601744392
  0
TEXT
  5
298
330
1F
100
AcDbEntity
  8
0
100
AcDbText
 10
907.1586594166411
 20
1776.20503219261
 30
0.0
 40
18.0
  1
ISO02
 72
     1
 11
942.8025884753042
 21
1785.20503219261
 31
0.0
100
AcDbText
 73
     2
  0
TEXT
  5
299
330
1F
100
AcDbEntity
  8
0
100
AcDbText
 10
1046.314069923767
 20
1776.20503219261
 30
0.0
 40
18.0
  1
ISO03
 72
     1
 11
1081.95799898243
 21
1785.20503219261
 31
0.0
100
AcDbText
 73
     2
  0
TEXT
  5
29A
330
1F
100
AcDbEntity
  8
0
100
AcDbText
 10
1185.469480430894
 20
1776.20503219261
 30
0.0
 40
18.0
  1
ISO04
 72
     1
 11
1221.113409489557
 21
1785.20503219261
 31
0.0
100
AcDbText
 73
     2
  0
TEXT
  5
29B
330
1F
100
AcDbEntity
  8
0
100
AcDbText
 10
1324.62489093802
 20
1776.20503219261
 30
0.0
 40
18.0
  1
ISO05
 72
     1
 11
1360.268819996683
 21
1785.20503219261
 31
0.0
100
AcDbText
 73
     2
  0
TEXT
  5
29C
330
1F
100
AcDbEntity
  8
0
100
AcDbText
 10
1463.780301445147
 20
1776.20503219261
 30
0.0
 40
18.0
  1
ISO06
 72
     1
 11
1499.42423050381
 21
1785.20503219261
 31
0.0
100
AcDbText
 73
     2
  0
TEXT
  5
29D
330
1F
100
AcDbEntity
  8
0
100
AcDbText
 10
1602.935711952273
 20
1776.20503219261
 30
0.0
 40
18.0
  1
ISO07
 72
     1
 11
1638.579641010936
 21
1785.20503219261
 31
0.0
100
AcDbText
 73
     2
  0
TEXT
  5
29E
330
1F
100
AcDbEntity
  8
0
100
AcDbText
 10
1742.091122459399
 20
1776.20503219261
 30
0.0
 40
18.0
  1
ISO08
 72
     1
 11
1777.735051518062
 21
1785.20503219261
 31
0.0
100
AcDbText
 73
     2
  0
HATCH
  5
29F
330
1F
100
AcDbEntity
  8
0
100
AcDbHatch
 10
0.0
 20
0.0
 30
0.0
210
0.0
220
0.0
230
1.0
  2
ACAD_ISO02W100
 70
     0
 71
     0
 91
        1
 92
        1
 93
        4
 72
     1
 10
902.802588475304
 20
1809.055601744392
 11
982.8025884753042
 21
1809.055601744392
 72
     1
 10
982.8025884753042
 20
1809.055601744392
 11
982.8025884753042
 21
1889.055601744392
 72
     1
 10
982.8025884753042
 20
1889.055601744392
 11
902.802588475304
 21
1889.055601744392
 72
     1
 10
902.802588475304
 20
1889.055601744392
 11
902.802588475304
 21
1809.055601744392
 97
        0
 75
     1
 76
     1
 52
0.0
 41
1.0
 77
     0
 78
     1
 53
0.0
 43
0.0
 44
0.0
 45
0.0
 46
5.0
 79
     2
 49
12.0
 49
-3.0
 98
        1
 10
-2708.407765425913
 20
-4757.513871045161
1001
GradientColor1ACI
1070
     5
1001
GradientColor2ACI
1070
     2
1001
ACAD
1010
0.0
1020
0.0
1030
0.0
  0
HATCH
  5
2A0
330
1F
100
AcDbEntity
  8
0
100
AcDbHatch
 10
0.0
 20
0.0
 30
0.0
210
0.0
220
0.0
230
1.0
  2
ACAD_ISO03W100
 70
     0
 71
     0
 91
        1
 92
        1
 93
        4
 72
     1
 10
1041.957998982431
 20
1809.055601744392
 11
1121.95799898243
 21
1809.055601744392
 72
     1
 10
1121.95799898243
 20
1809.055601744392
 11
1121.95799898243
 21
1889.055601744392
 72
     1
 10
1121.95799898243
 20
1889.055601744392
 11
1041.957998982431
 21
1889.055601744392
 72
     1
 10
1041.957998982431
 20
1889.055601744392
 11
1041.957998982431
 21
1809.055601744392
 97
        0
 75
     1
 76
     1
 52
0.0
 41
1.0
 77
     0
 78
     1
 53
0.0
 43
0.0
 44
0.0
 45
0.0
 46
5.0
 79
     2
 49
12.0
 49
-18.0
 98
        1
 10
-2708.407765425913
 20
-4757.513871045161
1001
GradientColor1ACI
1070
     5
1001
GradientColor2ACI
1070
     2
1001
ACAD
1010
0.0
1020
0.0
1030
0.0
  0
HATCH
  5
2A1
330
1F
100
AcDbEntity
  8
0
100
AcDbHatch
 10
0.0
 20
0.0
 30
0.0
210
0.0
220
0.0
230
1.0
  2
ACAD_ISO04W100
 70
     0
 71
     0
 91
        1
 92
        1
 93
        4
 72
     1
 10
1181.113409489557
 20
1809.055601744392
 11
1261.113409489557
 21
1809.055601744392
 72
     1
 10
1261.113409489557
 20
1809.055601744392
 11
1261.113409489557
 21
1889.055601744392
 72
     1
 10
1261.113409489557
 20
1889.055601744392
 11
1181.113409489557
 21
1889.055601744392
 72
     1
 10
1181.113409489557
 20
1889.055601744392
 11
1181.113409489557
 21
1809.055601744392
 97
        0
 75
     1
 76
     1
 52
0.0
 41
1.0
 77
     0
 78
     1
 53
0.0
 43
0.0
 44
0.0
 45
0.0
 46
5.0
 79
     4
 49
24.0
 49
-3.0
 49
0.5
 49
-3.0
 98
        1
 10
-2708.407765425913
 20
-4757.513871045161
1001
GradientColor1ACI
1070
     5
1001
GradientColor2ACI
1070
     2
1001
ACAD
1010
0.0
1020
0.0
1030
0.0
  0
HATCH
  5
2A2
330
1F
100
AcDbEntity
  8
0
100
AcDbHatch
 10
0.0
 20
0.0
 30
0.0
210
0.0
220
0.0
230
1.0
  2
ACAD_ISO05W100
 70
     0
 71
     0
 91
        1
 92
        1
 93
        4
 72
     1
 10
1320.268819996683
 20
1809.055601744392
 11
1400.268819996683
 21
1809.055601744392
 72
     1
 10
1400.268819996683
 20
1809.055601744392
 11
1400.268819996683
 21
1889.055601744392
 72
     1
 10
1400.268819996683
 20
1889.055601744392
 11
1320.268819996683
 21
1889.055601744392
 72
     1
 10
1320.268819996683
 20
1889.055601744392
 11
1320.268819996683
 21
1809.055601744392
 97
        0
 75
     1
 76
     1
 52
0.0
 41
1.0
 77
     0
 78
     1
 53
0.0
 43
0.0
 44
0.0
 45
0.0
 46
5.0
 79
     6
 49
24.0
 49
-3.0
 49
0.5
 49
-3.0
 49
0.5
 49
-3.0
 98
        1
 10
-2708.407765425913
 20
-4757.513871045161
1001
GradientColor1ACI
1070
     5
1001
GradientColor2ACI
1070
     2
1001
ACAD
1010
0.0
1020
0.0
1030
0.0
  0
HATCH
  5
2A3
330
1F
100
AcDbEntity
  8
0
100
AcDbHatch
 10
0.0
 20
0.0
 30
0.0
210
0.0
220
0.0
230
1.0
  2
ACAD_ISO06W100
 70
     0
 71
     1
 91
        1
 92
        1
 93
        4
 72
     1
 10
1459.42423050381
 20
1809.055601744392
 11
1539.424230503809
 21
1809.055601744392
 72
     1
 10
1539.424230503809
 20
1809.055601744392
 11
1539.424230503809
 21
1889.055601744392
 72
     1
 10
1539.424230503809
 20
1889.055601744392
 11
1459.42423050381
 21
1889.055601744392
 72
     1
 10
1459.42423050381
 20
1889.055601744392
 11
1459.42423050381
 21
1809.055601744392
 97
        1
330
290
 75
     1
 76
     1
 52
0.0
 41
1.0
 77
     0
 78
     2
 53
0.0
 43
0.0
 44
0.0
 45
0.0
 46
5.0
 79
     6
 49
24.0
 49
-3.0
 49
0.5
 49
-3.0
 49
0.5
 49
-6.5
 53
0.0
 43
0.0
 44
0.0
 45
0.0
 46
5.0
 79
     3
 49
-34.0
 49
0.5
 49
-3.0
 98
        1
 10
-2847.563175933039
 20
-4757.513871045161
1001
GradientColor1ACI
1070
     5
1001
GradientColor2ACI
1070
     2
1001
ACAD
1010
0.0
1020
0.0
1030
0.0
  0
HATCH
  5
2A4
330
1F
100
AcDbEntity
  8
0
100
AcDbHatch
 10
0.0
 20
0.0
 30
0.0
210
0.0
220
0.0
230
1.0
  2
ACAD_ISO07W100
 70
     0
 71
     1
 91
        1
 92
        1
 93
        4
 72
     1
 10
1598.579641010936
 20
1809.055601744392
 11
1678.579641010936
 21
1809.055601744392
 72
     1
 10
1678.579641010936
 20
1809.055601744392
 11
1678.579641010936
 21
1889.055601744392
 72
     1
 10
1678.579641010936
 20
1889.055601744392
 11
1598.579641010936
 21
1889.055601744392
 72
     1
 10
1598.579641010936
 20
1889.055601744392
 11
1598.579641010936
 21
1809.055601744392
 97
        1
330
292
 75
     1
 76
     1
 52
0.0
 41
1.0
 77
     0
 78
     1
 53
0.0
 43
0.0
 44
0.0
 45
0.0
 46
5.0
 79
     2
 49
0.5
 49
-3.0
 98
        1
 10
-2708.407765425913
 20
-4757.513871045161
1001
GradientColor1ACI
1070
     5
1001
GradientColor2ACI
1070
     2
1001
ACAD
1010
0.0
1020
0.0
1030
0.0
  0
HATCH
  5
2A5
330
1F
100
AcDbEntity
  8
0
100
AcDbHatch
 10
0.0
 20
0.0
 30
0.0
210
0.0
220
0.0
230
1.0
  2
ACAD_ISO08W100
 70
     0
 71
     1
 91
        1
 92
        1
 93
        4
 72
     1
 10
1737.735051518062
 20
1809.055601744392
 11
1817.735051518062
 21
1809.055601744392
 72
     1
 10
1817.735051518062
 20
1809.055601744392
 11
1817.735051518062
 21
1889.055601744392
 72
     1
 10
1817.735051518062
 20
1889.055601744392
 11
1737.735051518062
 21
1889.055601744392
 72
     1
 10
1737.735051518062
 20
1889.055601744392
 11
1737.735051518062
 21
1809.055601744392
 97
        1
330
294
 75
     1
 76
     1
 52
0.0
 41
1.0
 77
     0
 78
     1
 53
0.0
 43
0.0
 44
0.0
 45
0.0
 46
5.0
 79
     4
 49
24.0
 49
-3.0
 49
6.0
 49
-3.0
 98
        1
 10
-2708.407765425913
 20
-4757.513871045161
1001
GradientColor1ACI
1070
     5
1001
GradientColor2ACI
1070
     2
1001
ACAD
1010
0.0
1020
0.0
1030
0.0
  0
LWPOLYLINE
  5
2A6
102
{ACAD_REACTORS
330
2B4
102
}
330
1F
100
AcDbEntity
  8
0
100
AcDbPolyline
 90
        4
 70
     1
 43
0.0
 10
2155.201283039442
 20
1809.055601744392
 10
2235.201283039442
 20
1809.055601744392
 10
2235.201283039442
 20
1889.055601744392
 10
2155.201283039442
 20
1889.055601744392
  0
LWPOLYLINE
  5
2A7
102
{ACAD_REACTORS
330
2B5
102
}
330
1F
100
AcDbEntity
  8
0
100
AcDbPolyline
 90
        4
 70
     1
 43
0.0
 10
2294.356693546568
 20
1809.055601744392
 10
2374.356693546568
 20
1809.055601744392
 10
2374.356693546568
 20
1889.055601744392
 10
2294.356693546568
 20
1889.055601744392
  0
TEXT
  5
2A8
330
1F
100
AcDbEntity
  8
0
100
AcDbText
 10
1881.246532966526
 20
1776.20503219261
 30
0.0
 40
18.0
  1
ISO09
 72
     1
 11
1916.890462025189
 21
1785.20503219261
 31
0.0
100
AcDbText
 73
     2
  0
TEXT
  5
2A9
330
1F
100
AcDbEntity
  8
0
100
AcDbText
 10
2020.401943473652
 20
1776.20503219261
 30
0.0
 40
18.0
  1
ISO10
 72
     1
 11
2056.045872532315
 21
1785.20503219261
 31
0.0
100
AcDbText
 73
     2
  0
LWPOLYLINE
  5
2AA
102
{ACAD_REACTORS
330
2B6
102
}
330
1F
100
AcDbEntity
  8
0
100
AcDbPolyline
 90
        4
 70
     1
 43
0.0
 10
2433.512104053694
 20
1809.055601744392
 10
2513.512104053694
 20
1809.055601744392
 10
2513.512104053694
 20
1889.055601744392
 10
2433.512104053694
 20
1889.055601744392
  0
LWPOLYLINE
  5
2AB
102
{ACAD_REACTORS
330
2B7
102
}
330
1F
100
AcDbEntity
  8
0
100
AcDbPolyline
 90
        4
 70
     1
 43
0.0
 10
2572.667514560821
 20
1809.055601744392
 10
2652.667514560821
 20
1809.055601744392
 10
2652.667514560821
 20
1889.055601744392
 10
2572.667514560821
 20
1889.055601744392
  0
TEXT
  5
2AC
330
1F
100
AcDbEntity
  8
0
100
AcDbText
 10
2159.557353980779
 20
1776.20503219261
 30
0.0
 40
18.0
  1
ISO11
 72
     1
 11
2195.201283039442
 21
1785.20503219261
 31
0.0
100
AcDbText
 73
     2
  0
TEXT
  5
2AD
330
1F
100
AcDbEntity
  8
0
100
AcDbText
 10
2298.712764487905
 20
1776.20503219261
 30
0.0
 40
18.0
  1
ISO12
 72
     1
 11
2334.356693546568
 21
1785.20503219261
 31
0.0
100
AcDbText
 73
     2
  0
LWPOLYLINE
  5
2AE
102
{ACAD_REACTORS
330
2B8
102
}
330
1F
100
AcDbEntity
  8
0
100
AcDbPolyline
 90
        4
 70
     1
 43
0.0
 10
2711.822925067947
 20
1809.055601744392
 10
2791.822925067947
 20
1809.055601744392
 10
2791.822925067947
 20
1889.055601744392
 10
2711.822925067947
 20
1889.055601744392
  0
TEXT
  5
2B0
330
1F
100
AcDbEntity
  8
0
100
AcDbText
 10
2437.868174995031
 20
1776.20503219261
 30
0.0
 40
18.0
  1
ISO13
 72
     1
 11
2473.512104053694
 21
1785.20503219261
 31
0.0
100
AcDbText
 73
     2
  0
TEXT
  5
2B1
330
1F
100
AcDbEntity
  8
0
100
AcDbText
 10
2577.023585502158
 20
1776.20503219261
 30
0.0
 40
18.0
  1
ISO14
 72
     1
 11
2612.667514560821
 21
1785.20503219261
 31
0.0
100
AcDbText
 73
     2
  0
HATCH
  5
2B2
330
1F
100
AcDbEntity
  8
0
100
AcDbHatch
 10
0.0
 20
0.0
 30
0.0
210
0.0
220
0.0
230
1.0
  2
ACAD_ISO09W100
 70
     0
 71
     1
 91
        1
 92
        1
 93
        4
 72
     1
 10
1876.890462025189
 20
1809.055601744392
 11
1956.890462025189
 21
1809.055601744392
 72
     1
 10
1956.890462025189
 20
1809.055601744392
 11
1956.890462025189
 21
1889.055601744392
 72
     1
 10
1956.890462025189
 20
1889.055601744392
 11
1876.890462025189
 21
1889.055601744392
 72
     1
 10
1876.890462025189
 20
1889.055601744392
 11
1876.890462025189
 21
1809.055601744392
 97
        1
330
295
 75
     1
 76
     1
 52
0.0
 41
1.0
 77
     0
 78
     1
 53
0.0
 43
0.0
 44
0.0
 45
0.0
 46
5.0
 79
     6
 49
24.0
 49
-3.0
 49
6.0
 49
-3.0
 49
6.0
 49
-3.0
 98
        1
 10
-2708.407765425913
 20
-4757.513871045161
1001
GradientColor1ACI
1070
     5
1001
GradientColor2ACI
1070
     2
1001
ACAD
1010
0.0
1020
0.0
1030
0.0
  0
HATCH
  5
2B3
330
1F
100
AcDbEntity
  8
0
100
AcDbHatch
 10
0.0
 20
0.0
 30
0.0
210
0.0
220
0.0
230
1.0
  2
ACAD_ISO10W100
 70
     0
 71
     1
 91
        1
 92
        1
 93
        4
 72
     1
 10
2016.045872532315
 20
1809.055601744392
 11
2096.045872532315
 21
1809.055601744392
 72
     1
 10
2096.045872532315
 20
1809.055601744392
 11
2096.045872532315
 21
1889.055601744392
 72
     1
 10
2096.045872532315
 20
1889.055601744392
 11
2016.045872532315
 21
1889.055601744392
 72
     1
 10
2016.045872532315
 20
1889.055601744392
 11
2016.045872532315
 21
1809.055601744392
 97
        1
330
296
 75
     1
 76
     1
 52
0.0
 41
1.0
 77
     0
 78
     1
 53
0.0
 43
0.0
 44
0.0
 45
0.0
 46
5.0
 79
     4
 49
12.0
 49
-3.0
 49
0.5
 49
-3.0
 98
        1
 10
-2708.407765425913
 20
-4757.513871045161
1001
GradientColor1ACI
1070
     5
1001
GradientColor2ACI
1070
     2
1001
ACAD
1010
0.0
1020
0.0
1030
0.0
  0
HATCH
  5
2B4
330
1F
100
AcDbEntity
  8
0
100
AcDbHatch
 10
0.0
 20
0.0
 30
0.0
210
0.0
220
0.0
230
1.0
  2
ACAD_ISO11W100
 70
     0
 71
     1
 91
        1
 92
        1
 93
        4
 72
     1
 10
2155.201283039442
 20
1809.055601744392
 11
2235.201283039442
 21
1809.055601744392
 72
     1
 10
2235.201283039442
 20
1809.055601744392
 11
2235.201283039442
 21
1889.055601744392
 72
     1
 10
2235.201283039442
 20
1889.055601744392
 11
2155.201283039442
 21
1889.055601744392
 72
     1
 10
2155.201283039442
 20
1889.055601744392
 11
2155.201283039442
 21
1809.055601744392
 97
        1
330
2A6
 75
     1
 76
     1
 52
0.0
 41
1.0
 77
     0
 78
     1
 53
0.0
 43
0.0
 44
0.0
 45
0.0
 46
5.0
 79
     6
 49
12.0
 49
-3.0
 49
12.0
 49
-3.0
 49
0.5
 49
-3.0
 98
        1
 10
-2708.407765425913
 20
-4757.513871045161
1001
GradientColor1ACI
1070
     5
1001
GradientColor2ACI
1070
     2
1001
ACAD
1010
0.0
1020
0.0
1030
0.0
  0
HATCH
  5
2B5
330
1F
100
AcDbEntity
  8
0
100
AcDbHatch
 10
0.0
 20
0.0
 30
0.0
210
0.0
220
0.0
230
1.0
  2
ACAD_ISO12W100
 70
     0
 71
     1
 91
        1
 92
        1
 93
        4
 72
     1
 10
2294.356693546568
 20
1809.055601744392
 11
2374.356693546568
 21
1809.055601744392
 72
     1
 10
2374.356693546568
 20
1809.055601744392
 11
2374.356693546568
 21
1889.055601744392
 72
     1
 10
2374.356693546568
 20
1889.055601744392
 11
2294.356693546568
 21
1889.055601744392
 72
     1
 10
2294.356693546568
 20
1889.055601744392
 11
2294.356693546568
 21
1809.055601744392
 97
        1
330
2A7
 75
     1
 76
     1
 52
0.0
 41
1.0
 77
     0
 78
     1
 53
0.0
 43
0.0
 44
0.0
 45
0.0
 46
5.0
 79
     6
 49
12.0
 49
-3.0
 49
0.5
 49
-3.0
 49
0.5
 49
-3.0
 98
        1
 10
-2708.407765425913
 20
-4757.513871045161
1001
GradientColor1ACI
1070
     5
1001
GradientColor2ACI
1070
     2
1001
ACAD
1010
0.0
1020
0.0
1030
0.0
  0
HATCH
  5
2B6
330
1F
100
AcDbEntity
  8
0
100
AcDbHatch
 10
0.0
 20
0.0
 30
0.0
210
0.0
220
0.0
230
1.0
  2
ACAD_ISO13W100
 70
     0
 71
     1
 91
        1
 92
        1
 93
        4
 72
     1
 10
2433.512104053694
 20
1809.055601744392
 11
2513.512104053694
 21
1809.055601744392
 72
     1
 10
2513.512104053694
 20
1809.055601744392
 11
2513.512104053694
 21
1889.055601744392
 72
     1
 10
2513.512104053694
 20
1889.055601744392
 11
2433.512104053694
 21
1889.055601744392
 72
     1
 10
2433.512104053694
 20
1889.055601744392
 11
2433.512104053694
 21
1809.055601744392
 97
        1
330
2AA
 75
     1
 76
     1
 52
0.0
 41
1.0
 77
     0
 78
     2
 53
0.0
 43
0.0
 44
0.0
 45
0.0
 46
5.0
 79
     6
 49
12.0
 49
-3.0
 49
12.0
 49
-3.0
 49
0.5
 49
-6.5
 53
0.0
 43
0.0
 44
0.0
 45
0.0
 46
5.0
 79
     3
 49
-33.5
 49
0.5
 49
-3.0
 98
        1
 10
-2708.407765425913
 20
-4757.513871045161
1001
GradientColor1ACI
1070
     5
1001
GradientColor2ACI
1070
     2
1001
ACAD
1010
0.0
1020
0.0
1030
0.0
  0
HATCH
  5
2B7
330
1F
100
AcDbEntity
  8
0
100
AcDbHatch
 10
0.0
 20
0.0
 30
0.0
210
0.0
220
0.0
230
1.0
  2
ACAD_ISO14W100
 70
     0
 71
     1
 91
        1
 92
        1
 93
        4
 72
     1
 10
2572.667514560821
 20
1809.055601744392
 11
2652.667514560821
 21
1809.055601744392
 72
     1
 10
2652.667514560821
 20
1809.055601744392
 11
2652.667514560821
 21
1889.055601744392
 72
     1
 10
2652.667514560821
 20
1889.055601744392
 11
2572.667514560821
 21
1889.055601744392
 72
     1
 10
2572.667514560821
 20
1889.055601744392
 11
2572.667514560821
 21
1809.055601744392
 97
        1
330
2AB
 75
     1
 76
     1
 52
0.0
 41
1.0
 77
     0
 78
     2
 53
0.0
 43
0.0
 44
0.0
 45
0.0
 46
5.0
 79
     6
 49
12.0
 49
-3.0
 49
0.5
 49
-3.0
 49
0.5
 49
-6.5
 53
0.0
 43
0.0
 44
0.0
 45
0.0
 46
5.0
 79
     3
 49
-22.0
 49
0.5
 49
-3.0
 98
        1
 10
-2708.407765425913
 20
-4757.513871045161
1001
GradientColor1ACI
1070
     5
1001
GradientColor2ACI
1070
     2
1001
ACAD
1010
0.0
1020
0.0
1030
0.0
  0
HATCH
  5
2B8
330
1F
100
AcDbEntity
  8
0
100
AcDbHatch
 10
0.0
 20
0.0
 30
0.0
210
0.0
220
0.0
230
1.0
  2
ACAD_ISO15W100
 70
     0
 71
     1
 91
        1
 92
        1
 93
        4
 72
     1
 10
2711.822925067947
 20
1809.055601744392
 11
2791.822925067947
 21
1809.055601744392
 72
     1
 10
2791.822925067947
 20
1809.055601744392
 11
2791.822925067947
 21
1889.055601744392
 72
     1
 10
2791.822925067947
 20
1889.055601744392
 11
2711.822925067947
 21
1889.055601744392
 72
     1
 10
2711.822925067947
 20
1889.055601744392
 11
2711.822925067947
 21
1809.055601744392
 97
        1
330
2AE
 75
     1
 76
     1
 52
0.0
 41
1.0
 77
     0
 78
     2
 53
0.0
 43
0.0
 44
0.0
 45
0.0
 46
5.0
 79
     6
 49
12.0
 49
-3.0
 49
12.0
 49
-3.0
 49
0.5
 49
-10.0
 53
0.0
 43
0.0
 44
0.0
 45
0.0
 46
5.0
 79
     5
 49
-33.5
 49
0.5
 49
-3.0
 49
0.5
 49
-3.0
 98
        1
 10
-2708.407765425913
 20
-4757.513871045161
1001
GradientColor1ACI
1070
     5
1001
GradientColor2ACI
1070
     2
1001
ACAD
1010
0.0
1020
0.0
1030
0.0
  0
TEXT
  5
2B9
330
1F
100
AcDbEntity
  8
0
100
AcDbText
 10
2716.178996009284
 20
1776.20503219261
 30
0.0
 40
18.0
  1
ISO15
 72
     1
 11
2751.822925067947
 21
1785.20503219261
 31
0.0
100
AcDbText
 73
     2
  0
LWPOLYLINE
  5
33C
102
{ACAD_REACTORS
330
364
102
}
330
1F
100
AcDbEntity
  8
0
100
AcDbPolyline
 90
        4
 70
     1
 43
0.0
 10
902.802588475304
 20
1585.837957015054
 10
982.8025884753042
 20
1585.837957015054
 10
982.8025884753042
 20
1665.837957015053
 10
902.802588475304
 20
1665.837957015053
  0
LWPOLYLINE
  5
33E
102
{ACAD_REACTORS
330
365
102
}
330
1F
100
AcDbEntity
  8
0
100
AcDbPolyline
 90
        4
 70
     1
 43
0.0
 10
1041.957998982431
 20
1585.837957015054
 10
1121.95799898243
 20
1585.837957015054
 10
1121.95799898243
 20
1665.837957015053
 10
1041.957998982431
 20
1665.837957015053
  0
LWPOLYLINE
  5
340
102
{ACAD_REACTORS
330
366
102
}
330
1F
100
AcDbEntity
  8
0
100
AcDbPolyline
 90
        4
 70
     1
 43
0.0
 10
1181.113409489557
 20
1585.837957015054
 10
1261.113409489557
 20
1585.837957015054
 10
1261.113409489557
 20
1665.837957015053
 10
1181.113409489557
 20
1665.837957015053
  0
LWPOLYLINE
  5
341
102
{ACAD_REACTORS
330
368
102
}
330
1F
100
AcDbEntity
  8
0
100
AcDbPolyline
 90
        4
 70
     1
 43
0.0
 10
1320.268819996683
 20
1585.837957015054
 10
1400.268819996683
 20
1585.837957015054
 10
1400.268819996683
 20
1665.837957015053
 10
1320.268819996683
 20
1665.837957015053
  0
LWPOLYLINE
  5
343
102
{ACAD_REACTORS
330
369
102
}
330
1F
100
AcDbEntity
  8
0
100
AcDbPolyline
 90
        4
 70
     1
 43
0.0
 10
1459.42423050381
 20
1585.837957015054
 10
1539.424230503809
 20
1585.837957015054
 10
1539.424230503809
 20
1665.837957015053
 10
1459.42423050381
 20
1665.837957015053
  0
LWPOLYLINE
  5
345
102
{ACAD_REACTORS
330
36A
102
}
330
1F
100
AcDbEntity
  8
0
100
AcDbPolyline
 90
        4
 70
     1
 43
0.0
 10
1598.579641010936
 20
1585.837957015054
 10
1678.579641010936
 20
1585.837957015054
 10
1678.579641010936
 20
1665.837957015053
 10
1598.579641010936
 20
1665.837957015053
  0
LWPOLYLINE
  5
347
102
{ACAD_REACTORS
330
36B
102
}
330
1F
100
AcDbEntity
  8
0
100
AcDbPolyline
 90
        4
 70
     1
 43
0.0
 10
1737.735051518062
 20
1585.837957015054
 10
1817.735051518062
 20
1585.837957015054
 10
1817.735051518062
 20
1665.837957015053
 10
1737.735051518062
 20
1665.837957015053
  0
LWPOLYLINE
  5
349
102
{ACAD_REACTORS
330
36C
102
}
330
1F
100
AcDbEntity
  8
0
100
AcDbPolyline
 90
        4
 70
     1
 43
0.0
 10
1876.890462025189
 20
1585.837957015054
 10
1956.890462025189
 20
1585.837957015054
 10
1956.890462025189
 20
1665.837957015053
 10
1876.890462025189
 20
1665.837957015053
  0
LWPOLYLINE
  5
34B
102
{ACAD_REACTORS
330
36D
102
}
330
1F
100
AcDbEntity
  8
0
100
AcDbPolyline
 90
        4
 70
     1
 43
0.0
 10
2016.045872532315
 20
1585.837957015054
 10
2096.045872532315
 20
1585.837957015054
 10
2096.045872532315
 20
1665.837957015053
 10
2016.045872532315
 20
1665.837957015053
  0
TEXT
  5
34C
330
1F
100
AcDbEntity
  8
0
100
AcDbText
 10
905.0713470019072
 20
1552.987387463272
 30
0.0
 40
18.0
  1
SOLID
 72
     1
 11
942.8025884753042
 21
1561.987387463272
 31
0.0
100
AcDbText
 73
     2
  0
TEXT
  5
34D
330
1F
100
AcDbEntity
  8
0
100
AcDbText
 10
1039.352269105213
 20
1552.987387463272
 30
0.0
 40
18.0
  1
ANGLE
 72
     1
 11
1081.95799898243
 21
1561.987387463272
 31
0.0
100
AcDbText
 73
     2
  0
TEXT
  5
34E
330
1F
100
AcDbEntity
  8
0
100
AcDbText
 10
1174.302359012067
 20
1552.987387463272
 30
0.0
 40
18.0
  1
ARB816
 72
     1
 11
1221.113409489557
 21
1561.987387463272
 31
0.0
100
AcDbText
 73
     2
  0
TEXT
  5
34F
330
1F
100
AcDbEntity
  8
0
100
AcDbText
 10
1304.3779605151
 20
1552.987387463272
 30
0.0
 40
18.0
  1
ARB816C
 72
     1
 11
1360.268819996683
 21
1561.987387463272
 31
0.0
100
AcDbText
 73
     2
  0
TEXT
  5
350
330
1F
100
AcDbEntity
  8
0
100
AcDbText
 10
1459.605676615679
 20
1552.987387463272
 30
0.0
 40
18.0
  1
ARB88
 72
     1
 11
1499.42423050381
 21
1561.987387463272
 31
0.0
100
AcDbText
 73
     2
  0
TEXT
  5
351
330
1F
100
AcDbEntity
  8
0
100
AcDbText
 10
1577.814293125533
 20
1552.987387463272
 30
0.0
 40
18.0
  1
ARBRELM
 72
     1
 11
1638.579641010936
 21
1561.987387463272
 31
0.0
100
AcDbText
 73
     2
  0
TEXT
  5
352
330
1F
100
AcDbEntity
  8
0
100
AcDbText
 10
1717.675706361173
 20
1552.987387463272
 30
0.0
 40
18.0
  1
ARBRSTD
 72
     1
 11
1777.735051518062
 21
1561.987387463272
 31
0.0
100
AcDbText
 73
     2
  0
LWPOLYLINE
  5
354
102
{ACAD_REACTORS
330
36E
102
}
330
1F
100
AcDbEntity
  8
0
100
AcDbPolyline
 90
        4
 70
     1
 43
0.0
 10
2155.201283039442
 20
1585.837957015054
 10
2235.201283039442
 20
1585.837957015054
 10
2235.201283039442
 20
1665.837957015053
 10
2155.201283039442
 20
1665.837957015053
  0
LWPOLYLINE
  5
356
102
{ACAD_REACTORS
330
36F
102
}
330
1F
100
AcDbEntity
  8
0
100
AcDbPolyline
 90
        4
 70
     1
 43
0.0
 10
2294.356693546568
 20
1585.837957015054
 10
2374.356693546568
 20
1585.837957015054
 10
2374.356693546568
 20
1665.837957015053
 10
2294.356693546568
 20
1665.837957015053
  0
TEXT
  5
357
330
1F
100
AcDbEntity
  8
0
100
AcDbText
 10
1862.423886308954
 20
1552.987387463272
 30
0.0
 40
18.0
  1
ARCONC
 72
     1
 11
1916.890462025189
 21
1561.987387463272
 31
0.0
100
AcDbText
 73
     2
  0
TEXT
  5
358
330
1F
100
AcDbEntity
  8
0
100
AcDbText
 10
1993.886936652369
 20
1552.987387463272
 30
0.0
 40
18.0
  1
ARHBONE
 72
     1
 11
2056.045872532315
 21
1561.987387463272
 31
0.0
100
AcDbText
 73
     2
  0
LWPOLYLINE
  5
35A
102
{ACAD_REACTORS
330
370
102
}
330
1F
100
AcDbEntity
  8
0
100
AcDbPolyline
 90
        4
 70
     1
 43
0.0
 10
2433.512104053694
 20
1585.837957015054
 10
2513.512104053694
 20
1585.837957015054
 10
2513.512104053694
 20
1665.837957015053
 10
2433.512104053694
 20
1665.837957015053
  0
LWPOLYLINE
  5
35C
102
{ACAD_REACTORS
330
371
102
}
330
1F
100
AcDbEntity
  8
0
100
AcDbPolyline
 90
        4
 70
     1
 43
0.0
 10
2572.667514560821
 20
1585.837957015054
 10
2652.667514560821
 20
1585.837957015054
 10
2652.667514560821
 20
1665.837957015053
 10
2572.667514560821
 20
1665.837957015053
  0
TEXT
  5
35D
330
1F
100
AcDbEntity
  8
0
100
AcDbText
 10
2135.12965957423
 20
1552.987387463272
 30
0.0
 40
18.0
  1
ARPARQ1
 72
     1
 11
2195.201283039442
 21
1561.987387463272
 31
0.0
100
AcDbText
 73
     2
  0
TEXT
  5
35E
330
1F
100
AcDbEntity
  8
0
100
AcDbText
 10
2271.510172400592
 20
1552.987387463272
 30
0.0
 40
18.0
  1
ARRROOF
 72
     1
 11
2334.356693546568
 21
1561.987387463272
 31
0.0
100
AcDbText
 73
     2
  0
LWPOLYLINE
  5
360
102
{ACAD_REACTORS
330
372
102
}
330
1F
100
AcDbEntity
  8
0
100
AcDbPolyline
 90
        4
 70
     1
 43
0.0
 10
2711.822925067947
 20
1585.837957015054
 10
2791.822925067947
 20
1585.837957015054
 10
2791.822925067947
 20
1665.837957015053
 10
2711.822925067947
 20
1665.837957015053
  0
TEXT
  5
361
330
1F
100
AcDbEntity
  8
0
100
AcDbText
 10
2412.746756168291
 20
1552.987387463272
 30
0.0
 40
18.0
  1
ARRSHKE
 72
     1
 11
2473.512104053694
 21
1561.987387463272
 31
0.0
100
AcDbText
 73
     2
  0
TEXT
  5
362
330
1F
100
AcDbEntity
  8
0
100
AcDbText
 10
2560.288251259321
 20
1552.987387463272
 30
0.0
 40
18.0
  1
ARSAND
 72
     1
 11
2612.667514560821
 21
1561.987387463272
 31
0.0
100
AcDbText
 73
     2
  0
TEXT
  5
363
330
1F
100
AcDbEntity
  8
0
100
AcDbText
 10
2725.271083321699
 20
1552.987387463272
 30
0.0
 40
18.0
  1
BOX
 72
     1
 11
2751.822925067947
 21
1561.987387463272
 31
0.0
100
AcDbText
 73
     2
  0
HATCH
  5
364
330
1F
100
AcDbEntity
  8
0
100
AcDbHatch
 10
0.0
 20
0.0
 30
0.0
210
0.0
220
0.0
230
1.0
  2
SOLID
 70
     1
 71
     1
 91
        1
 92
        1
 93
        4
 72
     1
 10
902.802588475304
 20
1585.837957015054
 11
982.8025884753042
 21
1585.837957015054
 72
     1
 10
982.8025884753042
 20
1585.837957015054
 11
982.8025884753042
 21
1665.837957015053
 72
     1
 10
982.8025884753042
 20
1665.837957015053
 11
902.802588475304
 21
1665.837957015053
 72
     1
 10
902.802588475304
 20
1665.837957015053
 11
902.802588475304
 21
1585.837957015054
 97
        1
330
33C
 75
     1
 76
     1
 98
        1
 10
-2708.407765425913
 20
-4757.513871045161
1001
GradientColor1ACI
1070
     5
1001
GradientColor2ACI
1070
     2
1001
ACAD
1010
0.0
1020
0.0
1030
0.0
  0
HATCH
  5
365
330
1F
100
AcDbEntity
  8
0
100
AcDbHatch
 10
0.0
 20
0.0
 30
0.0
210
0.0
220
0.0
230
1.0
  2
ANGLE
 70
     0
 71
     1
 91
        1
 92
        1
 93
        4
 72
     1
 10
1041.957998982431
 20
1585.837957015054
 11
1121.95799898243
 21
1585.837957015054
 72
     1
 10
1121.95799898243
 20
1585.837957015054
 11
1121.95799898243
 21
1665.837957015053
 72
     1
 10
1121.95799898243
 20
1665.837957015053
 11
1041.957998982431
 21
1665.837957015053
 72
     1
 10
1041.957998982431
 20
1665.837957015053
 11
1041.957998982431
 21
1585.837957015054
 97
        1
330
33E
 75
     1
 76
     1
 52
0.0
 41
1.0
 77
     0
 78
     2
 53
0.0
 43
0.0
 44
0.0
 45
0.0
 46
6.985
 79
     2
 49
5.08
 49
-1.905
 53
90.0
 43
0.0
 44
0.0
 45
-6.985
 46
0.0000000000000004
 79
     2
 49
5.08
 49
-1.905
 98
        1
 10
-2708.407765425913
 20
-4757.513871045161
1001
GradientColor1ACI
1070
     5
1001
GradientColor2ACI
1070
     2
1001
ACAD
1010
0.0
1020
0.0
1030
0.0
  0
HATCH
  5
366
330
1F
100
AcDbEntity
  8
0
100
AcDbHatch
 10
0.0
 20
0.0
 30
0.0
210
0.0
220
0.0
230
1.0
  2
AR-B816
 70
     0
 71
     1
 91
        1
 92
        1
 93
        4
 72
     1
 10
1181.113409489557
 20
1585.837957015054
 11
1261.113409489557
 21
1585.837957015054
 72
     1
 10
1261.113409489557
 20
1585.837957015054
 11
1261.113409489557
 21
1665.837957015053
 72
     1
 10
1261.113409489557
 20
1665.837957015053
 11
1181.113409489557
 21
1665.837957015053
 72
     1
 10
1181.113409489557
 20
1665.837957015053
 11
1181.113409489557
 21
1585.837957015054
 97
        1
330
340
 75
     1
 76
     1
 52
0.0
 41
0.1
 77
     0
 78
     2
 53
0.0
 43
0.0
 44
0.0
 45
0.0
 46
20.32
 79
     0
 53
90.0
 43
0.0
 44
0.0
 45
-20.32
 46
20.32
 79
     2
 49
20.32
 49
-20.32
 98
        1
 10
-2708.407765425913
 20
-4757.513871045161
1001
GradientColor1ACI
1070
     5
1001
GradientColor2ACI
1070
     2
1001
ACAD
1010
0.0
1020
0.0
1030
0.0
  0
HATCH
  5
368
330
1F
100
AcDbEntity
  8
0
100
AcDbHatch
 10
0.0
 20
0.0
 30
0.0
210
0.0
220
0.0
230
1.0
  2
AR-B816C
 70
     0
 71
     1
 91
        1
 92
        1
 93
        4
 72
     1
 10
1320.268819996683
 20
1585.837957015054
 11
1400.268819996683
 21
1585.837957015054
 72
     1
 10
1400.268819996683
 20
1585.837957015054
 11
1400.268819996683
 21
1665.837957015053
 72
     1
 10
1400.268819996683
 20
1665.837957015053
 11
1320.268819996683
 21
1665.837957015053
 72
     1
 10
1320.268819996683
 20
1665.837957015053
 11
1320.268819996683
 21
1585.837957015054
 97
        1
330
341
 75
     1
 76
     1
 52
0.0
 41
0.1
 77
     0
 78
     4
 53
0.0
 43
0.0
 44
0.0
 45
20.32
 46
20.32
 79
     2
 49
39.6875
 49
-0.9525000000000002
 53
0.0
 43
-20.32
 44
0.9525000000000002
 45
20.32
 46
20.32
 79
     2
 49
39.6875
 49
-0.9525000000000002
 53
90.0
 43
0.0
 44
0.0
 45
-20.32
 46
20.32
 79
     2
 49
-21.2725
 49
19.3675
 53
90.0
 43
-0.9525000000000002
 44
0.0
 45
-20.32
 46
20.32
 79
     2
 49
-21.2725
 49
19.3675
 98
        1
 10
0.0
 20
0.0
1001
GradientColor1ACI
1070
     5
1001
GradientColor2ACI
1070
     2
1001
ACAD
1010
0.0
1020
0.0
1030
0.0
  0
HATCH
  5
369
330
1F
100
AcDbEntity
  8
0
100
AcDbHatch
 10
0.0
 20
0.0
 30
0.0
210
0.0
220
0.0
230
1.0
  2
AR-B88
 70
     0
 71
     1
 91
        1
 92
        1
 93
        4
 72
     1
 10
1459.42423050381
 20
1585.837957015054
 11
1539.424230503809
 21
1585.837957015054
 72
     1
 10
1539.424230503809
 20
1585.837957015054
 11
1539.424230503809
 21
1665.837957015053
 72
     1
 10
1539.424230503809
 20
1665.837957015053
 11
1459.42423050381
 21
1665.837957015053
 72
     1
 10
1459.42423050381
 20
1665.837957015053
 11
1459.42423050381
 21
1585.837957015054
 97
        1
330
343
 75
     1
 76
     1
 52
0.0
 41
0.1
 77
     0
 78
     2
 53
0.0
 43
0.0
 44
0.0
 45
0.0
 46
20.32
 79
     0
 53
90.0
 43
0.0
 44
0.0
 45
-10.16
 46
20.32
 79
     2
 49
20.32
 49
-20.32
 98
        1
 10
0.0
 20
0.0
1001
GradientColor1ACI
1070
     5
1001
GradientColor2ACI
1070
     2
1001
ACAD
1010
0.0
1020
0.0
1030
0.0
  0
HATCH
  5
36A
330
1F
100
AcDbEntity
  8
0
100
AcDbHatch
 10
0.0
 20
0.0
 30
0.0
210
0.0
220
0.0
230
1.0
  2
AR-BRELM
 70
     0
 71
     1
 91
        1
 92
        1
 93
        4
 72
     1
 10
1598.579641010936
 20
1585.837957015054
 11
1678.579641010936
 21
1585.837957015054
 72
     1
 10
1678.579641010936
 20
1585.837957015054
 11
1678.579641010936
 21
1665.837957015053
 72
     1
 10
1678.579641010936
 20
1665.837957015053
 11
1598.579641010936
 21
1665.837957015053
 72
     1
 10
1598.579641010936
 20
1665.837957015053
 11
1598.579641010936
 21
1585.837957015054
 97
        1
330
345
 75
     1
 76
     1
 52
0.0
 41
0.1
 77
     0
 78
     8
 53
0.0
 43
0.0
 44
0.0
 45
0.0
 46
13.5484
 79
     2
 49
19.3675
 49
-0.9525000000000002
 53
0.0
 43
0.0
 44
5.714999999999998
 45
0.0
 46
13.5484
 79
     2
 49
19.3675
 49
-0.9525000000000002
 53
0.0
 43
5.08
 44
6.77418
 45
0.0
 46
13.5484
 79
     2
 49
9.207499999999999
 49
-0.9525000000000002
 53
0.0
 43
5.08
 44
12.4892
 45
0.0
 46
13.5484
 79
     2
 49
9.207499999999999
 49
-0.9525000000000002
 53
90.0
 43
0.0
 44
0.0
 45
-20.32
 46
0.0000000000000012
 79
     2
 49
5.714999999999998
 49
-7.833400000000001
 53
90.0
 43
-0.9525000000000002
 44
0.0
 45
-20.32
 46
0.0000000000000012
 79
     2
 49
5.714999999999998
 49
-7.833400000000001
 53
90.0
 43
5.08
 44
6.77418
 45
-10.16
 46
0.0000000000000006
 79
     2
 49
5.714999999999998
 49
-7.833400000000001
 53
90.0
 43
4.1275
 44
6.77418
 45
-10.16
 46
0.0000000000000006
 79
     2
 49
5.714999999999998
 49
-7.833400000000001
 98
        1
 10
0.0
 20
0.0
1001
GradientColor1ACI
1070
     5
1001
GradientColor2ACI
1070
     2
1001
ACAD
1010
0.0
1020
0.0
1030
0.0
  0
HATCH
  5
36B
330
1F
100
AcDbEntity
  8
0
100
AcDbHatch
 10
0.0
 20
0.0
 30
0.0
210
0.0
220
0.0
230
1.0
  2
AR-BRSTD
 70
     0
 71
     1
 91
        1
 92
        1
 93
        4
 72
     1
 10
1737.735051518062
 20
1585.837957015054
 11
1817.735051518062
 21
1585.837957015054
 72
     1
 10
1817.735051518062
 20
1585.837957015054
 11
1817.735051518062
 21
1665.837957015053
 72
     1
 10
1817.735051518062
 20
1665.837957015053
 11
1737.735051518062
 21
1665.837957015053
 72
     1
 10
1737.735051518062
 20
1665.837957015053
 11
1737.735051518062
 21
1585.837957015054
 97
        1
330
347
 75
     1
 76
     1
 52
0.0
 41
0.1
 77
     0
 78
     2
 53
0.0
 43
0.0
 44
0.0
 45
0.0
 46
6.77418
 79
     0
 53
90.0
 43
0.0
 44
0.0
 45
-10.16
 46
6.77418
 79
     2
 49
6.77418
 49
-6.77418
 98
        1
 10
0.0
 20
0.0
1001
GradientColor1ACI
1070
     5
1001
GradientColor2ACI
1070
     2
1001
ACAD
1010
0.0
1020
0.0
1030
0.0
  0
HATCH
  5
36C
330
1F
100
AcDbEntity
  8
0
100
AcDbHatch
 10
0.0
 20
0.0
 30
0.0
210
0.0
220
0.0
230
1.0
  2
AR-CONC
 70
     0
 71
     1
 91
        1
 92
        1
 93
        4
 72
     1
 10
1876.890462025189
 20
1585.837957015054
 11
1956.890462025189
 21
1585.837957015054
 72
     1
 10
1956.890462025189
 20
1585.837957015054
 11
1956.890462025189
 21
1665.837957015053
 72
     1
 10
1956.890462025189
 20
1665.837957015053
 11
1876.890462025189
 21
1665.837957015053
 72
     1
 10
1876.890462025189
 20
1665.837957015053
 11
1876.890462025189
 21
1585.837957015054
 97
        1
330
349
 75
     1
 76
     1
 52
0.0
 41
0.1
 77
     0
 78
    13
 53
50.0
 43
0.0
 44
0.0
 45
18.2184668996004
 46
-1.593908553890308
 79
     2
 49
1.905
 49
-20.955
 53
355.0
 43
0.0
 44
0.0
 45
-3.524342142496933
 46
19.10568452390351
 79
     2
 49
1.524
 49
-16.764058417
 53
100.4514447
 43
1.518200699999999
 44
-0.13282535
 45
14.69412470903533
 46
17.51177519121951
 79
     2
 49
1.619000879999999
 49
-17.80902445999999
 53
46.18420000000001
 43
0.0
 44
5.08
 45
27.107904089213
 46
-4.204232793272714
 79
     2
 49
2.857499999999998
 49
-31.4325
 53
96.63555760999997
 43
2.25899
 44
4.72965
 45
23.7404134051503
 46
24.74261245977216
 79
     2
 49
2.428502314
 49
-26.713560816
 53
351.18415117
 43
0.0
 44
5.08
 45
23.74041340649771
 46
24.74261245855327
 79
     2
 49
2.285996706999999
 49
-25.145973192
 53
21.0
 43
2.54
 44
3.81
 45
15.16143912691325
 46
-10.22651981870876
 79
     2
 49
1.905
 49
-20.955
 53
326.0
 43
2.54
 44
3.81
 45
6.180202834764706
 46
18.41879661223192
 79
     2
 49
1.524
 49
-16.764
 53
71.45144499999998
 43
3.803453259999998
 44
2.95779001
 45
21.34164192787162
 46
8.192276888590525
 79
     2
 49
1.619000879999999
 49
-17.80899376
 53
37.5
 43
0.0
 44
0.0
 45
0.3088603250591817
 46
8.455503887315311
 79
     6
 49
0.0
 49
-16.5608
 49
0.0
 49
-17.018
 49
0.0
 49
-16.8275
 53
7.499999999999999
 43
0.0
 44
0.0
 45
6.681966251030575
 46
10.01805748181195
 79
     6
 49
0.0
 49
-9.702799999999999
 49
0.0
 49
-16.1798
 49
0.0
 49
-6.413499999999999
 53
327.5
 43
-5.6642
 44
0.0
 45
13.55905951668714
 46
-0.5728743992673444
 79
     6
 49
0.0
 49
-6.349999999999999
 49
0.0
 49
-19.812
 49
0.0
 49
-26.289
 53
317.5
 43
-8.2042
 44
0.0
 45
14.8129181386018
 46
2.542649103333303
 79
     6
 49
0.0
 49
-8.255
 49
0.0
 49
-13.1572
 49
0.0
 49
-18.669
 98
        1
 10
0.0
 20
0.0
1001
GradientColor1ACI
1070
     5
1001
GradientColor2ACI
1070
     2
1001
ACAD
1010
0.0
1020
0.0
1030
0.0
  0
HATCH
  5
36D
330
1F
100
AcDbEntity
  8
0
100
AcDbHatch
 10
0.0
 20
0.0
 30
0.0
210
0.0
220
0.0
230
1.0
  2
AR-HBONE
 70
     0
 71
     1
 91
        1
 92
        1
 93
        4
 72
     1
 10
2016.045872532315
 20
1585.837957015054
 11
2096.045872532315
 21
1585.837957015054
 72
     1
 10
2096.045872532315
 20
1585.837957015054
 11
2096.045872532315
 21
1665.837957015053
 72
     1
 10
2096.045872532315
 20
1665.837957015053
 11
2016.045872532315
 21
1665.837957015053
 72
     1
 10
2016.045872532315
 20
1665.837957015053
 11
2016.045872532315
 21
1585.837957015054
 97
        1
330
34B
 75
     1
 76
     1
 52
0.0
 41
0.1
 77
     0
 78
     2
 53
45.0
 43
0.0
 44
0.0
 45
0.0000000000000014
 46
14.36840979371065
 79
     2
 49
30.48
 49
-10.16
 53
135.0
 43
7.184199999999999
 44
7.184199999999999
 45
0.0000000000000014
 46
14.36840979371065
 79
     2
 49
30.48
 49
-10.16
 98
        1
 10
0.0
 20
0.0
1001
GradientColor1ACI
1070
     5
1001
GradientColor2ACI
1070
     2
1001
ACAD
1010
0.0
1020
0.0
1030
0.0
  0
HATCH
  5
36E
330
1F
100
AcDbEntity
  8
0
100
AcDbHatch
 10
0.0
 20
0.0
 30
0.0
210
0.0
220
0.0
230
1.0
  2
AR-PARQ1
 70
     0
 71
     1
 91
        1
 92
        1
 93
        4
 72
     1
 10
2155.201283039442
 20
1585.837957015054
 11
2235.201283039442
 21
1585.837957015054
 72
     1
 10
2235.201283039442
 20
1585.837957015054
 11
2235.201283039442
 21
1665.837957015053
 72
     1
 10
2235.201283039442
 20
1665.837957015053
 11
2155.201283039442
 21
1665.837957015053
 72
     1
 10
2155.201283039442
 20
1665.837957015053
 11
2155.201283039442
 21
1585.837957015054
 97
        1
330
354
 75
     1
 76
     1
 52
0.0
 41
0.1
 77
     0
 78
    14
 53
90.0
 43
0.0
 44
0.0
 45
-30.48
 46
30.48
 79
     2
 49
30.48
 49
-30.48
 53
90.0
 43
5.08
 44
0.0
 45
-30.48
 46
30.48
 79
     2
 49
30.48
 49
-30.48
 53
90.0
 43
10.16
 44
0.0
 45
-30.48
 46
30.48
 79
     2
 49
30.48
 49
-30.48
 53
90.0
 43
15.24
 44
0.0
 45
-30.48
 46
30.48
 79
     2
 49
30.48
 49
-30.48
 53
90.0
 43
20.32
 44
0.0
 45
-30.48
 46
30.48
 79
     2
 49
30.48
 49
-30.48
 53
90.0
 43
25.4
 44
0.0
 45
-30.48
 46
30.48
 79
     2
 49
30.48
 49
-30.48
 53
90.0
 43
30.48
 44
0.0
 45
-30.48
 46
30.48
 79
     2
 49
30.48
 49
-30.48
 53
0.0
 43
0.0
 44
30.48
 45
30.48
 46
-30.48
 79
     2
 49
30.48
 49
-30.48
 53
0.0
 43
0.0
 44
35.56
 45
30.48
 46
-30.48
 79
     2
 49
30.48
 49
-30.48
 53
0.0
 43
0.0
 44
40.64
 45
30.48
 46
-30.48
 79
     2
 49
30.48
 49
-30.48
 53
0.0
 43
0.0
 44
45.72
 45
30.48
 46
-30.48
 79
     2
 49
30.48
 49
-30.48
 53
0.0
 43
0.0
 44
50.8
 45
30.48
 46
-30.48
 79
     2
 49
30.48
 49
-30.48
 53
0.0
 43
0.0
 44
55.88
 45
30.48
 46
-30.48
 79
     2
 49
30.48
 49
-30.48
 53
0.0
 43
0.0
 44
60.96
 45
30.48
 46
-30.48
 79
     2
 49
30.48
 49
-30.48
 98
        1
 10
0.0
 20
0.0
1001
GradientColor1ACI
1070
     5
1001
GradientColor2ACI
1070
     2
1001
ACAD
1010
0.0
1020
0.0
1030
0.0
  0
HATCH
  5
36F
330
1F
100
AcDbEntity
  8
0
100
AcDbHatch
 10
0.0
 20
0.0
 30
0.0
210
0.0
220
0.0
230
1.0
  2
AR-RROOF
 70
     0
 71
     1
 91
        1
 92
        1
 93
        4
 72
     1
 10
2294.356693546568
 20
1585.837957015054
 11
2374.356693546568
 21
1585.837957015054
 72
     1
 10
2374.356693546568
 20
1585.837957015054
 11
2374.356693546568
 21
1665.837957015053
 72
     1
 10
2374.356693546568
 20
1665.837957015053
 11
2294.356693546568
 21
1665.837957015053
 72
     1
 10
2294.356693546568
 20
1665.837957015053
 11
2294.356693546568
 21
1585.837957015054
 97
        1
330
356
 75
     1
 76
     1
 52
0.0
 41
0.1
 77
     0
 78
     3
 53
0.0
 43
0.0
 44
0.0
 45
5.587999999999999
 46
2.54
 79
     4
 49
38.1
 49
-5.08
 49
12.7
 49
-2.54
 53
0.0
 43
3.378199999999998
 44
1.27
 45
-2.54
 46
3.378199999999998
 79
     4
 49
7.62
 49
-0.8382000000000001
 49
15.24
 49
-1.905
 53
0.0
 43
1.27
 44
2.159
 45
13.208
 46
1.701799999999999
 79
     4
 49
20.32
 49
-3.556
 49
10.16
 49
-2.54
 98
        1
 10
0.0
 20
0.0
1001
GradientColor1ACI
1070
     5
1001
GradientColor2ACI
1070
     2
1001
ACAD
1010
0.0
1020
0.0
1030
0.0
  0
HATCH
  5
370
330
1F
100
AcDbEntity
  8
0
100
AcDbHatch
 10
0.0
 20
0.0
 30
0.0
210
0.0
220
0.0
230
1.0
  2
AR-RSHKE
 70
     0
 71
     1
 91
        1
 92
        1
 93
        4
 72
     1
 10
2433.512104053694
 20
1585.837957015054
 11
2513.512104053694
 21
1585.837957015054
 72
     1
 10
2513.512104053694
 20
1585.837957015054
 11
2513.512104053694
 21
1665.837957015053
 72
     1
 10
2513.512104053694
 20
1665.837957015053
 11
2433.512104053694
 21
1665.837957015053
 72
     1
 10
2433.512104053694
 20
1665.837957015053
 11
2433.512104053694
 21
1585.837957015054
 97
        1
330
35A
 75
     1
 76
     1
 52
0.0
 41
0.1
 77
     0
 78
     9
 53
0.0
 43
0.0
 44
0.0
 45
64.77000000000001
 46
30.48
 79
     6
 49
15.24
 49
-12.7
 49
17.78
 49
-7.62
 49
22.86
 49
-10.16
 53
0.0
 43
15.24
 44
1.27
 45
64.77000000000001
 46
30.48
 79
     4
 49
12.7
 49
-48.26
 49
10.16
 49
-15.24
 53
0.0
 43
45.72
 44
-1.905
 45
64.77000000000001
 46
30.48
 79
     2
 49
7.62
 49
-78.74000000000002
 53
90.0
 43
0.0
 44
0.0
 45
-21.59
 46
30.48
 79
     2
 49
29.21000000000001
 49
-92.70999999999999
 53
90.0
 43
15.24
 44
0.0
 45
-21.59
 46
30.48
 79
     2
 49
28.575
 49
-93.34500000000002
 53
90.0
 43
27.94
 44
0.0
 45
-21.59
 46
30.48
 79
     2
 49
26.67
 49
-95.25
 53
90.0
 43
45.72
 44
-1.905
 45
-21.59
 46
30.48
 79
     2
 49
29.21000000000001
 49
-92.70999999999999
 53
90.0
 43
53.34
 44
-1.905
 45
-21.59
 46
30.48
 79
     2
 49
29.21000000000001
 49
-92.70999999999999
 53
90.0
 43
76.2
 44
0.0
 45
-21.59
 46
30.48
 79
     2
 49
27.94
 49
-93.98000000000001
 98
        1
 10
0.0
 20
0.0
1001
GradientColor1ACI
1070
     5
1001
GradientColor2ACI
1070
     2
1001
ACAD
1010
0.0
1020
0.0
1030
0.0
  0
HATCH
  5
371
330
1F
100
AcDbEntity
  8
0
100
AcDbHatch
 10
0.0
 20
0.0
 30
0.0
210
0.0
220
0.0
230
1.0
  2
AR-SAND
 70
     0
 71
     1
 91
        1
 92
        1
 93
        4
 72
     1
 10
2572.667514560821
 20
1585.837957015054
 11
2652.667514560821
 21
1585.837957015054
 72
     1
 10
2652.667514560821
 20
1585.837957015054
 11
2652.667514560821
 21
1665.837957015053
 72
     1
 10
2652.667514560821
 20
1665.837957015053
 11
2572.667514560821
 21
1665.837957015053
 72
     1
 10
2572.667514560821
 20
1665.837957015053
 11
2572.667514560821
 21
1585.837957015054
 97
        1
330
35C
 75
     1
 76
     1
 52
0.0
 41
0.1
 77
     0
 78
     4
 53
37.5
 43
0.0
 44
0.0
 45
-0.1600031295984046
 46
4.894132373293422
 79
     6
 49
0.0
 49
-3.860799999999999
 49
0.0
 49
-4.318
 49
0.0
 49
-4.1275
 53
7.499999999999999
 43
0.0
 44
0.0
 45
4.495232831380026
 46
7.168251005683542
 79
     6
 49
0.0
 49
-2.0828
 49
0.0
 49
-3.4798
 49
0.0
 49
-1.333499999999999
 53
327.5
 43
-3.1242
 44
0.0
 45
7.909923702414578
 46
0.0143718467854576
 79
     6
 49
0.0
 49
-1.27
 49
0.0
 49
-4.572
 49
0.0
 49
-5.968999999999999
 53
317.5
 43
-3.1242
 44
0.0
 45
7.635564524722973
 46
2.229293232572163
 79
     6
 49
0.0
 49
-0.635
 49
0.0
 49
-2.997199999999999
 49
0.0
 49
-3.428999999999999
 98
        1
 10
0.0
 20
0.0
1001
GradientColor1ACI
1070
     5
1001
GradientColor2ACI
1070
     2
1001
ACAD
1010
0.0
1020
0.0
1030
0.0
  0
HATCH
  5
372
330
1F
100
AcDbEntity
  8
0
100
AcDbHatch
 10
0.0
 20
0.0
 30
0.0
210
0.0
220
0.0
230
1.0
  2
BOX
 70
     0
 71
     1
 91
        1
 92
        1
 93
        4
 72
     1
 10
2711.822925067947
 20
1585.837957015054
 11
2791.822925067947
 21
1585.837957015054
 72
     1
 10
2791.822925067947
 20
1585.837957015054
 11
2791.822925067947
 21
1665.837957015053
 72
     1
 10
2791.822925067947
 20
1665.837957015053
 11
2711.822925067947
 21
1665.837957015053
 72
     1
 10
2711.822925067947
 20
1665.837957015053
 11
2711.822925067947
 21
1585.837957015054
 97
        1
330
360
 75
     1
 76
     1
 52
0.0
 41
1.0
 77
     0
 78
     8
 53
90.0
 43
0.0
 44
0.0
 45
-25.4
 46
0.0000000000000016
 79
     0
 53
90.0
 43
6.349999999999998
 44
0.0
 45
-25.4
 46
0.0000000000000016
 79
     0
 53
0.0
 43
0.0
 44
0.0
 45
0.0
 46
25.4
 79
     2
 49
-6.349999999999998
 49
6.349999999999998
 53
0.0
 43
0.0
 44
6.349999999999998
 45
0.0
 46
25.4
 79
     2
 49
-6.349999999999998
 49
6.349999999999998
 53
0.0
 43
0.0
 44
12.7
 45
0.0
 46
25.4
 79
     2
 49
6.349999999999998
 49
-6.349999999999998
 53
0.0
 43
0.0
 44
19.05
 45
0.0
 46
25.4
 79
     2
 49
6.349999999999998
 49
-6.349999999999998
 53
90.0
 43
12.7
 44
0.0
 45
-25.4
 46
0.0000000000000016
 79
     2
 49
6.349999999999998
 49
-6.349999999999998
 53
90.0
 43
19.05
 44
0.0
 45
-25.4
 46
0.0000000000000016
 79
     2
 49
6.349999999999998
 49
-6.349999999999998
 98
        1
 10
0.0
 20
0.0
1001
GradientColor1ACI
1070
     5
1001
GradientColor2ACI
1070
     2
1001
ACAD
1010
0.0
1020
0.0
1030
0.0
  0
HATCH
  5
373
330
1F
100
AcDbEntity
  8
0
100
AcDbHatch
 10
0.0
 20
0.0
 30
0.0
210
0.0
220
0.0
230
1.0
  2
BRASS
 70
     0
 71
     1
 91
        1
 92
        1
 93
        4
 72
     1
 10
902.802588475304
 20
1362.620312285715
 11
982.8025884753042
 21
1362.620312285715
 72
     1
 10
982.8025884753042
 20
1362.620312285715
 11
982.8025884753042
 21
1442.620312285715
 72
     1
 10
982.8025884753042
 20
1442.620312285715
 11
902.802588475304
 21
1442.620312285715
 72
     1
 10
902.802588475304
 20
1442.620312285715
 11
902.802588475304
 21
1362.620312285715
 97
        1
330
374
 75
     1
 76
     1
 52
0.0
 41
1.0
 77
     0
 78
     2
 53
0.0
 43
0.0
 44
0.0
 45
0.0
 46
6.349999999999998
 79
     0
 53
0.0
 43
0.0
 44
3.174999999999998
 45
0.0
 46
6.349999999999998
 79
     2
 49
3.174999999999998
 49
-1.587499999999999
 98
        1
 10
-2708.407765425913
 20
-4980.7315157745
1001
GradientColor1ACI
1070
     5
1001
GradientColor2ACI
1070
     2
1001
ACAD
1010
0.0
1020
0.0
1030
0.0
  0
LWPOLYLINE
  5
374
102
{ACAD_REACTORS
330
373
102
}
330
1F
100
AcDbEntity
  8
0
100
AcDbPolyline
 90
        4
 70
     1
 43
0.0
 10
902.802588475304
 20
1362.620312285715
 10
982.8025884753042
 20
1362.620312285715
 10
982.8025884753042
 20
1442.620312285715
 10
902.802588475304
 20
1442.620312285715
  0
HATCH
  5
375
330
1F
100
AcDbEntity
  8
0
100
AcDbHatch
 10
0.0
 20
0.0
 30
0.0
210
0.0
220
0.0
230
1.0
  2
BRICK
 70
     0
 71
     1
 91
        1
 92
        1
 93
        4
 72
     1
 10
1041.957998982431
 20
1362.620312285715
 11
1121.95799898243
 21
1362.620312285715
 72
     1
 10
1121.95799898243
 20
1362.620312285715
 11
1121.95799898243
 21
1442.620312285715
 72
     1
 10
1121.95799898243
 20
1442.620312285715
 11
1041.957998982431
 21
1442.620312285715
 72
     1
 10
1041.957998982431
 20
1442.620312285715
 11
1041.957998982431
 21
1362.620312285715
 97
        1
330
376
 75
     1
 76
     1
 52
0.0
 41
1.0
 77
     0
 78
     3
 53
0.0
 43
0.0
 44
0.0
 45
0.0
 46
6.349999999999998
 79
     0
 53
90.0
 43
0.0
 44
0.0
 45
-12.7
 46
0.0000000000000008
 79
     2
 49
6.349999999999998
 49
-6.349999999999998
 53
90.0
 43
6.349999999999998
 44
0.0
 45
-12.7
 46
0.0000000000000008
 79
     2
 49
-6.349999999999998
 49
6.349999999999998
 98
        1
 10
-2708.407765425913
 20
-4980.7315157745
1001
GradientColor1ACI
1070
     5
1001
GradientColor2ACI
1070
     2
1001
ACAD
1010
0.0
1020
0.0
1030
0.0
  0
LWPOLYLINE
  5
376
102
{ACAD_REACTORS
330
375
102
}
330
1F
100
AcDbEntity
  8
0
100
AcDbPolyline
 90
        4
 70
     1
 43
0.0
 10
1041.957998982431
 20
1362.620312285715
 10
1121.95799898243
 20
1362.620312285715
 10
1121.95799898243
 20
1442.620312285715
 10
1041.957998982431
 20
1442.620312285715
  0
HATCH
  5
377
330
1F
100
AcDbEntity
  8
0
100
AcDbHatch
 10
0.0
 20
0.0
 30
0.0
210
0.0
220
0.0
230
1.0
  2
BRSTONE
 70
     0
 71
     1
 91
        1
 92
        1
 93
        4
 72
     1
 10
1181.113409489557
 20
1362.620312285715
 11
1261.113409489557
 21
1362.620312285715
 72
     1
 10
1261.113409489557
 20
1362.620312285715
 11
1261.113409489557
 21
1442.620312285715
 72
     1
 10
1261.113409489557
 20
1442.620312285715
 11
1181.113409489557
 21
1442.620312285715
 72
     1
 10
1181.113409489557
 20
1442.620312285715
 11
1181.113409489557
 21
1362.620312285715
 97
        1
330
378
 75
     1
 76
     1
 52
0.0
 41
1.0
 77
     0
 78
     8
 53
0.0
 43
0.0
 44
0.0
 45
0.0
 46
8.381999999999999
 79
     0
 53
90.0
 43
22.86
 44
0.0
 45
-12.7
 46
8.381999999999999
 79
     2
 49
8.381999999999999
 49
-8.381999999999999
 53
90.0
 43
20.32
 44
0.0
 45
-12.7
 46
8.381999999999999
 79
     2
 49
8.381999999999999
 49
-8.381999999999999
 53
0.0
 43
22.86
 44
1.396999999999999
 45
12.7
 46
8.381999999999999
 79
     2
 49
-22.86
 49
2.54
 53
0.0
 43
22.86
 44
2.793999999999998
 45
12.7
 46
8.381999999999999
 79
     2
 49
-22.86
 49
2.54
 53
0.0
 43
22.86
 44
4.190999999999998
 45
12.7
 46
8.381999999999999
 79
     2
 49
-22.86
 49
2.54
 53
0.0
 43
22.86
 44
5.587999999999999
 45
12.7
 46
8.381999999999999
 79
     2
 49
-22.86
 49
2.54
 53
0.0
 43
22.86
 44
6.985
 45
12.7
 46
8.381999999999999
 79
     2
 49
-22.86
 49
2.54
 98
        1
 10
-2708.407765425913
 20
-4980.7315157745
1001
GradientColor1ACI
1070
     5
1001
GradientColor2ACI
1070
     2
1001
ACAD
1010
0.0
1020
0.0
1030
0.0
  0
LWPOLYLINE
  5
378
102
{ACAD_REACTORS
330
377
102
}
330
1F
100
AcDbEntity
  8
0
100
AcDbPolyline
 90
        4
 70
     1
 43
0.0
 10
1181.113409489557
 20
1362.620312285715
 10
1261.113409489557
 20
1362.620312285715
 10
1261.113409489557
 20
1442.620312285715
 10
1181.113409489557
 20
1442.620312285715
  0
HATCH
  5
379
330
1F
100
AcDbEntity
  8
0
100
AcDbHatch
 10
0.0
 20
0.0
 30
0.0
210
0.0
220
0.0
230
1.0
  2
CLAY
 70
     0
 71
     1
 91
        1
 92
        1
 93
        4
 72
     1
 10
1320.268819996683
 20
1362.620312285715
 11
1400.268819996683
 21
1362.620312285715
 72
     1
 10
1400.268819996683
 20
1362.620312285715
 11
1400.268819996683
 21
1442.620312285715
 72
     1
 10
1400.268819996683
 20
1442.620312285715
 11
1320.268819996683
 21
1442.620312285715
 72
     1
 10
1320.268819996683
 20
1442.620312285715
 11
1320.268819996683
 21
1362.620312285715
 97
        1
330
37A
 75
     1
 76
     1
 52
0.0
 41
1.0
 77
     0
 78
     4
 53
0.0
 43
0.0
 44
0.0
 45
0.0
 46
4.7625
 79
     0
 53
0.0
 43
0.0
 44
0.79375
 45
0.0
 46
4.7625
 79
     0
 53
0.0
 43
0.0
 44
1.587499999999999
 45
0.0
 46
4.7625
 79
     0
 53
0.0
 43
0.0
 44
3.174999999999998
 45
0.0
 46
4.7625
 79
     2
 49
4.7625
 49
-3.174999999999998
 98
        1
 10
0.0
 20
-223.2176447293387
1001
GradientColor1ACI
1070
     5
1001
GradientColor2ACI
1070
     2
1001
ACAD
1010
0.0
1020
0.0
1030
0.0
  0
LWPOLYLINE
  5
37A
102
{ACAD_REACTORS
330
379
102
}
330
1F
100
AcDbEntity
  8
0
100
AcDbPolyline
 90
        4
 70
     1
 43
0.0
 10
1320.268819996683
 20
1362.620312285715
 10
1400.268819996683
 20
1362.620312285715
 10
1400.268819996683
 20
1442.620312285715
 10
1320.268819996683
 20
1442.620312285715
  0
HATCH
  5
37B
330
1F
100
AcDbEntity
  8
0
100
AcDbHatch
 10
0.0
 20
0.0
 30
0.0
210
0.0
220
0.0
230
1.0
  2
CORK
 70
     0
 71
     1
 91
        1
 92
        1
 93
        4
 72
     1
 10
1459.42423050381
 20
1362.620312285715
 11
1539.424230503809
 21
1362.620312285715
 72
     1
 10
1539.424230503809
 20
1362.620312285715
 11
1539.424230503809
 21
1442.620312285715
 72
     1
 10
1539.424230503809
 20
1442.620312285715
 11
1459.42423050381
 21
1442.620312285715
 72
     1
 10
1459.42423050381
 20
1442.620312285715
 11
1459.42423050381
 21
1362.620312285715
 97
        1
330
37C
 75
     1
 76
     1
 52
0.0
 41
1.0
 77
     0
 78
     4
 53
0.0
 43
0.0
 44
0.0
 45
0.0
 46
3.174999999999998
 79
     0
 53
135.0
 43
1.587499999999999
 44
-1.587499999999999
 45
-6.350002742818306
 46
-6.350002742818304
 79
     2
 49
4.49013
 49
-4.49013
 53
135.0
 43
2.38125
 44
-1.587499999999999
 45
-6.350002742818306
 46
-6.350002742818304
 79
     2
 49
4.49013
 49
-4.49013
 53
135.0
 43
3.174999999999998
 44
-1.587499999999999
 45
-6.350002742818306
 46
-6.350002742818304
 79
     2
 49
4.49013
 49
-4.49013
 98
        1
 10
0.0
 20
-223.2176447293387
1001
GradientColor1ACI
1070
     5
1001
GradientColor2ACI
1070
     2
1001
ACAD
1010
0.0
1020
0.0
1030
0.0
  0
LWPOLYLINE
  5
37C
102
{ACAD_REACTORS
330
37B
102
}
330
1F
100
AcDbEntity
  8
0
100
AcDbPolyline
 90
        4
 70
     1
 43
0.0
 10
1459.42423050381
 20
1362.620312285715
 10
1539.424230503809
 20
1362.620312285715
 10
1539.424230503809
 20
1442.620312285715
 10
1459.42423050381
 20
1442.620312285715
  0
HATCH
  5
37D
330
1F
100
AcDbEntity
  8
0
100
AcDbHatch
 10
0.0
 20
0.0
 30
0.0
210
0.0
220
0.0
230
1.0
  2
CROSS
 70
     0
 71
     1
 91
        1
 92
        1
 93
        4
 72
     1
 10
1598.579641010936
 20
1362.620312285715
 11
1678.579641010936
 21
1362.620312285715
 72
     1
 10
1678.579641010936
 20
1362.620312285715
 11
1678.579641010936
 21
1442.620312285715
 72
     1
 10
1678.579641010936
 20
1442.620312285715
 11
1598.579641010936
 21
1442.620312285715
 72
     1
 10
1598.579641010936
 20
1442.620312285715
 11
1598.579641010936
 21
1362.620312285715
 97
        1
330
37E
 75
     1
 76
     1
 52
0.0
 41
1.0
 77
     0
 78
     2
 53
0.0
 43
0.0
 44
0.0
 45
6.349999999999998
 46
6.349999999999998
 79
     2
 49
3.174999999999998
 49
-9.525
 53
90.0
 43
1.587499999999999
 44
-1.587499999999999
 45
-6.349999999999998
 46
6.349999999999998
 79
     2
 49
3.174999999999998
 49
-9.525
 98
        1
 10
0.0
 20
-223.2176447293387
1001
GradientColor1ACI
1070
     5
1001
GradientColor2ACI
1070
     2
1001
ACAD
1010
0.0
1020
0.0
1030
0.0
  0
LWPOLYLINE
  5
37E
102
{ACAD_REACTORS
330
37D
102
}
330
1F
100
AcDbEntity
  8
0
100
AcDbPolyline
 90
        4
 70
     1
 43
0.0
 10
1598.579641010936
 20
1362.620312285715
 10
1678.579641010936
 20
1362.620312285715
 10
1678.579641010936
 20
1442.620312285715
 10
1598.579641010936
 20
1442.620312285715
  0
HATCH
  5
37F
330
1F
100
AcDbEntity
  8
0
100
AcDbHatch
 10
0.0
 20
0.0
 30
0.0
210
0.0
220
0.0
230
1.0
  2
DASH
 70
     0
 71
     1
 91
        1
 92
        1
 93
        4
 72
     1
 10
1737.735051518062
 20
1362.620312285715
 11
1817.735051518062
 21
1362.620312285715
 72
     1
 10
1817.735051518062
 20
1362.620312285715
 11
1817.735051518062
 21
1442.620312285715
 72
     1
 10
1817.735051518062
 20
1442.620312285715
 11
1737.735051518062
 21
1442.620312285715
 72
     1
 10
1737.735051518062
 20
1442.620312285715
 11
1737.735051518062
 21
1362.620312285715
 97
        1
330
380
 75
     1
 76
     1
 52
0.0
 41
1.0
 77
     0
 78
     1
 53
0.0
 43
0.0
 44
0.0
 45
3.174999999999998
 46
3.174999999999998
 79
     2
 49
3.174999999999998
 49
-3.174999999999998
 98
        1
 10
0.0
 20
-223.2176447293387
1001
GradientColor1ACI
1070
     5
1001
GradientColor2ACI
1070
     2
1001
ACAD
1010
0.0
1020
0.0
1030
0.0
  0
LWPOLYLINE
  5
380
102
{ACAD_REACTORS
330
37F
102
}
330
1F
100
AcDbEntity
  8
0
100
AcDbPolyline
 90
        4
 70
     1
 43
0.0
 10
1737.735051518062
 20
1362.620312285715
 10
1817.735051518062
 20
1362.620312285715
 10
1817.735051518062
 20
1442.620312285715
 10
1737.735051518062
 20
1442.620312285715
  0
HATCH
  5
381
330
1F
100
AcDbEntity
  8
0
100
AcDbHatch
 10
0.0
 20
0.0
 30
0.0
210
0.0
220
0.0
230
1.0
  2
DOLMIT
 70
     0
 71
     1
 91
        1
 92
        1
 93
        4
 72
     1
 10
1876.890462025189
 20
1362.620312285715
 11
1956.890462025189
 21
1362.620312285715
 72
     1
 10
1956.890462025189
 20
1362.620312285715
 11
1956.890462025189
 21
1442.620312285715
 72
     1
 10
1956.890462025189
 20
1442.620312285715
 11
1876.890462025189
 21
1442.620312285715
 72
     1
 10
1876.890462025189
 20
1442.620312285715
 11
1876.890462025189
 21
1362.620312285715
 97
        1
330
382
 75
     1
 76
     1
 52
0.0
 41
1.0
 77
     0
 78
     2
 53
0.0
 43
0.0
 44
0.0
 45
0.0
 46
6.349999999999998
 79
     0
 53
45.0
 43
0.0
 44
0.0
 45
-12.69999134350098
 46
12.69999134350098
 79
     2
 49
8.980256121069151
 49
-17.96051224213831
 98
        1
 10
0.0
 20
-223.2176447293387
1001
GradientColor1ACI
1070
     5
1001
GradientColor2ACI
1070
     2
1001
ACAD
1010
0.0
1020
0.0
1030
0.0
  0
LWPOLYLINE
  5
382
102
{ACAD_REACTORS
330
381
102
}
330
1F
100
AcDbEntity
  8
0
100
AcDbPolyline
 90
        4
 70
     1
 43
0.0
 10
1876.890462025189
 20
1362.620312285715
 10
1956.890462025189
 20
1362.620312285715
 10
1956.890462025189
 20
1442.620312285715
 10
1876.890462025189
 20
1442.620312285715
  0
HATCH
  5
383
330
1F
100
AcDbEntity
  8
0
100
AcDbHatch
 10
0.0
 20
0.0
 30
0.0
210
0.0
220
0.0
230
1.0
  2
DOTS
 70
     0
 71
     1
 91
        1
 92
        1
 93
        4
 72
     1
 10
2016.045872532315
 20
1362.620312285715
 11
2096.045872532315
 21
1362.620312285715
 72
     1
 10
2096.045872532315
 20
1362.620312285715
 11
2096.045872532315
 21
1442.620312285715
 72
     1
 10
2096.045872532315
 20
1442.620312285715
 11
2016.045872532315
 21
1442.620312285715
 72
     1
 10
2016.045872532315
 20
1442.620312285715
 11
2016.045872532315
 21
1362.620312285715
 97
        1
330
384
 75
     1
 76
     1
 52
0.0
 41
1.0
 77
     0
 78
     1
 53
0.0
 43
0.0
 44
0.0
 45
0.79375
 46
1.587499999999999
 79
     2
 49
0.0
 49
-1.587499999999999
 98
        1
 10
0.0
 20
-223.2176447293387
1001
GradientColor1ACI
1070
     5
1001
GradientColor2ACI
1070
     2
1001
ACAD
1010
0.0
1020
0.0
1030
0.0
  0
LWPOLYLINE
  5
384
102
{ACAD_REACTORS
330
383
102
}
330
1F
100
AcDbEntity
  8
0
100
AcDbPolyline
 90
        4
 70
     1
 43
0.0
 10
2016.045872532315
 20
1362.620312285715
 10
2096.045872532315
 20
1362.620312285715
 10
2096.045872532315
 20
1442.620312285715
 10
2016.045872532315
 20
1442.620312285715
  0
TEXT
  5
385
330
1F
100
AcDbEntity
  8
0
100
AcDbText
 10
900.1784411356043
 20
1329.769742733933
 30
0.0
 40
18.0
  1
BRASS
 72
     1
 11
942.8025884753042
 21
1338.769742733933
 31
0.0
100
AcDbText
 73
     2
  0
TEXT
  5
386
330
1F
100
AcDbEntity
  8
0
100
AcDbText
 10
1043.533033088842
 20
1329.769742733933
 30
0.0
 40
18.0
  1
BRICK
 72
     1
 11
1081.95799898243
 21
1338.769742733933
 31
0.0
100
AcDbText
 73
     2
  0
TEXT
  5
387
330
1F
100
AcDbEntity
  8
0
100
AcDbText
 10
1160.335783295832
 20
1329.769742733933
 30
0.0
 40
18.0
  1
BRSTONE
 72
     1
 11
1221.113409489557
 21
1338.769742733933
 31
0.0
100
AcDbText
 73
     2
  0
TEXT
  5
388
330
1F
100
AcDbEntity
  8
0
100
AcDbText
 10
1327.424345235428
 20
1329.769742733933
 30
0.0
 40
18.0
  1
CLAY
 72
     1
 11
1360.268819996683
 21
1338.769742733933
 31
0.0
100
AcDbText
 73
     2
  0
TEXT
  5
389
330
1F
100
AcDbEntity
  8
0
100
AcDbText
 10
1463.098855333278
 20
1329.769742733933
 30
0.0
 40
18.0
  1
CORK
 72
     1
 11
1499.42423050381
 21
1338.769742733933
 31
0.0
100
AcDbText
 73
     2
  0
TEXT
  5
38A
330
1F
100
AcDbEntity
  8
0
100
AcDbText
 10
1593.868181256502
 20
1329.769742733933
 30
0.0
 40
18.0
  1
CROSS
 72
     1
 11
1638.579641010936
 21
1338.769742733933
 31
0.0
100
AcDbText
 73
     2
  0
TEXT
  5
38B
330
1F
100
AcDbEntity
  8
0
100
AcDbText
 10
1742.803264342073
 20
1329.769742733933
 30
0.0
 40
18.0
  1
DASH
 72
     1
 11
1777.735051518062
 21
1338.769742733933
 31
0.0
100
AcDbText
 73
     2
  0
HATCH
  5
38C
330
1F
100
AcDbEntity
  8
0
100
AcDbHatch
 10
0.0
 20
0.0
 30
0.0
210
0.0
220
0.0
230
1.0
  2
EARTH
 70
     0
 71
     1
 91
        1
 92
        1
 93
        4
 72
     1
 10
2155.201283039442
 20
1362.620312285715
 11
2235.201283039442
 21
1362.620312285715
 72
     1
 10
2235.201283039442
 20
1362.620312285715
 11
2235.201283039442
 21
1442.620312285715
 72
     1
 10
2235.201283039442
 20
1442.620312285715
 11
2155.201283039442
 21
1442.620312285715
 72
     1
 10
2155.201283039442
 20
1442.620312285715
 11
2155.201283039442
 21
1362.620312285715
 97
        1
330
38D
 75
     1
 76
     1
 52
0.0
 41
1.0
 77
     0
 78
     6
 53
0.0
 43
0.0
 44
0.0
 45
6.349999999999998
 46
6.349999999999998
 79
     2
 49
6.349999999999998
 49
-6.349999999999998
 53
0.0
 43
0.0
 44
2.38125
 45
6.349999999999998
 46
6.349999999999998
 79
     2
 49
6.349999999999998
 49
-6.349999999999998
 53
0.0
 43
0.0
 44
4.7625
 45
6.349999999999998
 46
6.349999999999998
 79
     2
 49
6.349999999999998
 49
-6.349999999999998
 53
90.0
 43
0.79375
 44
5.55625
 45
-6.349999999999998
 46
6.349999999999998
 79
     2
 49
6.349999999999998
 49
-6.349999999999998
 53
90.0
 43
3.174999999999998
 44
5.55625
 45
-6.349999999999998
 46
6.349999999999998
 79
     2
 49
6.349999999999998
 49
-6.349999999999998
 53
90.0
 43
5.55625
 44
5.55625
 45
-6.349999999999998
 46
6.349999999999998
 79
     2
 49
6.349999999999998
 49
-6.349999999999998
 98
        1
 10
0.0
 20
-223.2176447293387
1001
GradientColor1ACI
1070
     5
1001
GradientColor2ACI
1070
     2
1001
ACAD
1010
0.0
1020
0.0
1030
0.0
  0
LWPOLYLINE
  5
38D
102
{ACAD_REACTORS
330
38C
102
}
330
1F
100
AcDbEntity
  8
0
100
AcDbPolyline
 90
        4
 70
     1
 43
0.0
 10
2155.201283039442
 20
1362.620312285715
 10
2235.201283039442
 20
1362.620312285715
 10
2235.201283039442
 20
1442.620312285715
 10
2155.201283039442
 20
1442.620312285715
  0
HATCH
  5
38E
330
1F
100
AcDbEntity
  8
0
100
AcDbHatch
 10
0.0
 20
0.0
 30
0.0
210
0.0
220
0.0
230
1.0
  2
ESCHER
 70
     0
 71
     1
 91
        1
 92
        1
 93
        4
 72
     1
 10
2294.356693546568
 20
1362.620312285715
 11
2374.356693546568
 21
1362.620312285715
 72
     1
 10
2374.356693546568
 20
1362.620312285715
 11
2374.356693546568
 21
1442.620312285715
 72
     1
 10
2374.356693546568
 20
1442.620312285715
 11
2294.356693546568
 21
1442.620312285715
 72
     1
 10
2294.356693546568
 20
1442.620312285715
 11
2294.356693546568
 21
1362.620312285715
 97
        1
330
38F
 75
     1
 76
     1
 52
0.0
 41
1.0
 77
     0
 78
    21
 53
60.0
 43
0.0
 44
0.0
 45
-30.47999998809242
 46
-0.0000000068748403
 79
     2
 49
27.94
 49
-2.54
 53
180.0
 43
0.0
 44
0.0
 45
15.24
 46
-26.39645429360002
 79
     2
 49
27.94
 49
-2.54
 53
300.0
 43
0.0
 44
0.0
 45
30.47999998809242
 46
-0.0000000068748403
 79
     2
 49
27.94
 49
-2.54
 53
60.0
 43
2.54
 44
0.0
 45
-30.47999998809242
 46
-0.0000000068748403
 79
     2
 49
5.08
 49
-25.4
 53
300.0
 43
2.54
 44
0.0
 45
30.47999998809242
 46
-0.0000000068748403
 79
     2
 49
5.08
 49
-25.4
 53
60.0
 43
-1.27
 44
2.199704515999998
 45
-30.47999998809242
 46
-0.0000000068748403
 79
     2
 49
5.08
 49
-25.4
 53
180.0
 43
-1.27
 44
2.199704515999998
 45
15.24
 46
-26.39645429360002
 79
     2
 49
5.08
 49
-25.4
 53
300.0
 43
-1.27
 44
-2.199704515999998
 45
30.47999998809242
 46
-0.0000000068748403
 79
     2
 49
5.08
 49
-25.4
 53
180.0
 43
-1.27
 44
-2.199704515999998
 45
15.24
 46
-26.39645429360002
 79
     2
 49
5.08
 49
-25.4
 53
60.0
 43
-10.16
 44
0.0
 45
-30.47999998809242
 46
-0.0000000068748403
 79
     2
 49
5.08
 49
-25.4
 53
300.0
 43
-10.16
 44
0.0
 45
30.47999998809242
 46
-0.0000000068748403
 79
     2
 49
5.08
 49
-25.4
 53
60.0
 43
5.08
 44
-8.7988180894
 45
-30.47999998809242
 46
-0.0000000068748403
 79
     2
 49
5.08
 49
-25.4
 53
180.0
 43
5.08
 44
-8.7988180894
 45
15.24
 46
-26.39645429360002
 79
     2
 49
5.08
 49
-25.4
 53
300.0
 43
5.08
 44
8.7988180894
 45
30.47999998809242
 46
-0.0000000068748403
 79
     2
 49
5.08
 49
-25.4
 53
180.0
 43
5.08
 44
8.7988180894
 45
15.24
 46
-26.39645429360002
 79
     2
 49
5.08
 49
-25.4
 53
0.0
 43
5.08
 44
4.399409057399998
 45
-15.24
 46
26.3964542936
 79
     2
 49
17.78
 49
-12.7
 53
0.0
 43
5.08
 44
-4.399409057399998
 45
-15.24
 46
26.3964542936
 79
     2
 49
17.78
 49
-12.7
 53
120.0
 43
1.27
 44
6.5991135734
 45
-30.47999998809242
 46
0.0000000068748509
 79
     2
 49
17.78
 49
-12.7
 53
120.0
 43
-6.349999999999998
 44
2.199704515999998
 45
-30.47999998809242
 46
0.0000000068748509
 79
     2
 49
17.78
 49
-12.7
 53
240.0
 43
-6.349999999999998
 44
-2.199704515999998
 45
15.2399999880924
 46
-26.39645430047485
 79
     2
 49
17.78
 49
-12.7
 53
240.0
 43
1.27
 44
-6.5991135734
 45
15.2399999880924
 46
-26.39645430047485
 79
     2
 49
17.78
 49
-12.7
 98
        1
 10
0.0
 20
-223.2176447293387
1001
GradientColor1ACI
1070
     5
1001
GradientColor2ACI
1070
     2
1001
ACAD
1010
0.0
1020
0.0
1030
0.0
  0
LWPOLYLINE
  5
38F
102
{ACAD_REACTORS
330
38E
102
}
330
1F
100
AcDbEntity
  8
0
100
AcDbPolyline
 90
        4
 70
     1
 43
0.0
 10
2294.356693546568
 20
1362.620312285715
 10
2374.356693546568
 20
1362.620312285715
 10
2374.356693546568
 20
1442.620312285715
 10
2294.356693546568
 20
1442.620312285715
  0
TEXT
  5
390
330
1F
100
AcDbEntity
  8
0
100
AcDbText
 10
1869.391826281669
 20
1329.769742733933
 30
0.0
 40
18.0
  1
DOLMIT
 72
     1
 11
1916.890462025189
 21
1338.769742733933
 31
0.0
100
AcDbText
 73
     2
  0
TEXT
  5
391
330
1F
100
AcDbEntity
  8
0
100
AcDbText
 10
2021.120224510487
 20
1329.769742733933
 30
0.0
 40
18.0
  1
DOTS
 72
     1
 11
2056.045872532315
 21
1338.769742733933
 31
0.0
100
AcDbText
 73
     2
  0
HATCH
  5
392
330
1F
100
AcDbEntity
  8
0
100
AcDbHatch
 10
0.0
 20
0.0
 30
0.0
210
0.0
220
0.0
230
1.0
  2
FLEX
 70
     0
 71
     1
 91
        1
 92
        1
 93
        4
 72
     1
 10
2433.512104053694
 20
1362.620312285715
 11
2513.512104053694
 21
1362.620312285715
 72
     1
 10
2513.512104053694
 20
1362.620312285715
 11
2513.512104053694
 21
1442.620312285715
 72
     1
 10
2513.512104053694
 20
1442.620312285715
 11
2433.512104053694
 21
1442.620312285715
 72
     1
 10
2433.512104053694
 20
1442.620312285715
 11
2433.512104053694
 21
1362.620312285715
 97
        1
330
393
 75
     1
 76
     1
 52
0.0
 41
1.0
 77
     0
 78
     2
 53
0.0
 43
0.0
 44
0.0
 45
0.0
 46
6.349999999999998
 79
     2
 49
6.349999999999998
 49
-6.349999999999998
 53
45.0
 43
6.349999999999998
 44
0.0
 45
0.0000000000000004
 46
6.3499999893445
 79
     4
 49
1.587499999999999
 49
-5.8052561314
 49
1.587499999999999
 49
-8.980256131399997
 98
        1
 10
0.0
 20
-223.2176447293387
1001
GradientColor1ACI
1070
     5
1001
GradientColor2ACI
1070
     2
1001
ACAD
1010
0.0
1020
0.0
1030
0.0
  0
LWPOLYLINE
  5
393
102
{ACAD_REACTORS
330
392
102
}
330
1F
100
AcDbEntity
  8
0
100
AcDbPolyline
 90
        4
 70
     1
 43
0.0
 10
2433.512104053694
 20
1362.620312285715
 10
2513.512104053694
 20
1362.620312285715
 10
2513.512104053694
 20
1442.620312285715
 10
2433.512104053694
 20
1442.620312285715
  0
HATCH
  5
394
330
1F
100
AcDbEntity
  8
0
100
AcDbHatch
 10
0.0
 20
0.0
 30
0.0
210
0.0
220
0.0
230
1.0
  2
GOST_GLASS
 70
     0
 71
     1
 91
        1
 92
        1
 93
        4
 72
     1
 10
2572.667514560821
 20
1362.620312285715
 11
2652.667514560821
 21
1362.620312285715
 72
     1
 10
2652.667514560821
 20
1362.620312285715
 11
2652.667514560821
 21
1442.620312285715
 72
     1
 10
2652.667514560821
 20
1442.620312285715
 11
2572.667514560821
 21
1442.620312285715
 72
     1
 10
2572.667514560821
 20
1442.620312285715
 11
2572.667514560821
 21
1362.620312285715
 97
        1
330
395
 75
     1
 76
     1
 52
0.0
 41
1.0
 77
     0
 78
     3
 53
45.0
 43
0.0
 44
0.0
 45
8.485281374238571
 46
-0.0000000000000009
 79
     2
 49
5.0
 49
-7.0
 53
45.0
 43
2.121319999999998
 44
0.0
 45
8.485281374238571
 46
-0.0000000000000009
 79
     2
 49
2.0
 49
-10.0
 53
45.0
 43
0.0
 44
2.121319999999998
 45
8.485281374238571
 46
-0.0000000000000009
 79
     2
 49
2.0
 49
-10.0
 98
        1
 10
0.0
 20
-223.2176447293387
1001
GradientColor1ACI
1070
     5
1001
GradientColor2ACI
1070
     2
1001
ACAD
1010
0.0
1020
0.0
1030
0.0
  0
LWPOLYLINE
  5
395
102
{ACAD_REACTORS
330
394
102
}
330
1F
100
AcDbEntity
  8
0
100
AcDbPolyline
 90
        4
 70
     1
 43
0.0
 10
2572.667514560821
 20
1362.620312285715
 10
2652.667514560821
 20
1362.620312285715
 10
2652.667514560821
 20
1442.620312285715
 10
2572.667514560821
 20
1442.620312285715
  0
TEXT
  5
396
330
1F
100
AcDbEntity
  8
0
100
AcDbText
 10
2152.589414008064
 20
1329.769742733933
 30
0.0
 40
18.0
  1
EARTH
 72
     1
 11
2195.201283039442
 21
1338.769742733933
 31
0.0
100
AcDbText
 73
     2
  0
TEXT
  5
397
330
1F
100
AcDbEntity
  8
0
100
AcDbText
 10
2281.959012782584
 20
1329.769742733933
 30
0.0
 40
18.0
  1
ESCHER
 72
     1
 11
2334.356693546568
 21
1338.769742733933
 31
0.0
100
AcDbText
 73
     2
  0
HATCH
  5
398
330
1F
100
AcDbEntity
  8
0
100
AcDbHatch
 10
0.0
 20
0.0
 30
0.0
210
0.0
220
0.0
230
1.0
  2
GOST_WOOD
 70
     0
 71
     1
 91
        1
 92
        1
 93
        4
 72
     1
 10
2711.822925067947
 20
1362.620312285715
 11
2791.822925067947
 21
1362.620312285715
 72
     1
 10
2791.822925067947
 20
1362.620312285715
 11
2791.822925067947
 21
1442.620312285715
 72
     1
 10
2791.822925067947
 20
1442.620312285715
 11
2711.822925067947
 21
1442.620312285715
 72
     1
 10
2711.822925067947
 20
1442.620312285715
 11
2711.822925067947
 21
1362.620312285715
 97
        1
330
399
 75
     1
 76
     1
 52
0.0
 41
1.0
 77
     0
 78
     3
 53
90.0
 43
0.0
 44
0.0
 45
6.0
 46
-0.0000000000000004
 79
     2
 49
10.0
 49
-2.0
 53
90.0
 43
2.0
 44
-2.0
 45
6.0
 46
-0.0000000000000004
 79
     4
 49
6.0
 49
-1.5
 49
3.0
 49
-1.5
 53
90.0
 43
4.0
 44
-5.0
 45
6.0
 46
-0.0000000000000004
 79
     2
 49
10.0
 49
-2.0
 98
        1
 10
0.0
 20
-223.2176447293387
1001
GradientColor1ACI
1070
     5
1001
GradientColor2ACI
1070
     2
1001
ACAD
1010
0.0
1020
0.0
1030
0.0
  0
LWPOLYLINE
  5
399
102
{ACAD_REACTORS
330
398
102
}
330
1F
100
AcDbEntity
  8
0
100
AcDbPolyline
 90
        4
 70
     1
 43
0.0
 10
2711.822925067947
 20
1362.620312285715
 10
2791.822925067947
 20
1362.620312285715
 10
2791.822925067947
 20
1442.620312285715
 10
2711.822925067947
 20
1442.620312285715
  0
TEXT
  5
39A
330
1F
100
AcDbEntity
  8
0
100
AcDbText
 10
2442.067356441143
 20
1329.769742733933
 30
0.0
 40
18.0
  1
FLEX
 72
     1
 11
2473.512104053694
 21
1338.769742733933
 31
0.0
100
AcDbText
 73
     2
  0
TEXT
  5
39B
330
1F
100
AcDbEntity
  8
0
100
AcDbText
 10
2528.119083455774
 20
1329.769742733933
 30
0.0
 40
18.0
  1
GOST_GLASS
 72
     1
 11
2612.667514560821
 21
1338.769742733933
 31
0.0
100
AcDbText
 73
     2
  0
TEXT
  5
39C
330
1F
100
AcDbEntity
  8
0
100
AcDbText
 10
2704.514603103418
 20
1329.769742733933
 30
0.0
 40
18.0
  1
_WOOD
 72
     1
 11
2751.822925067947
 21
1338.769742733933
 31
0.0
100
AcDbText
 73
     2
  0
HATCH
  5
41D
330
1F
100
AcDbEntity
  8
0
100
AcDbHatch
 10
0.0
 20
0.0
 30
0.0
210
0.0
220
0.0
230
1.0
  2
GOST_GROUND
 70
     0
 71
     1
 91
        1
 92
        1
 93
        4
 72
     1
 10
902.802588475304
 20
1139.402667556376
 11
982.8025884753042
 21
1139.402667556376
 72
     1
 10
982.8025884753042
 20
1139.402667556376
 11
982.8025884753042
 21
1219.402667556376
 72
     1
 10
982.8025884753042
 20
1219.402667556376
 11
902.802588475304
 21
1219.402667556376
 72
     1
 10
902.802588475304
 20
1219.402667556376
 11
902.802588475304
 21
1139.402667556376
 97
        1
330
41E
 75
     1
 76
     1
 52
0.0
 41
1.0
 77
     0
 78
     3
 53
45.0
 43
0.0
 44
0.0
 45
14.14213562373095
 46
-0.0000000000000009
 79
     1
 49
20.0
 53
45.0
 43
3.0
 44
0.0
 45
14.14213562373095
 46
-0.0000000000000009
 79
     1
 49
20.0
 53
45.0
 43
6.0
 44
0.0
 45
14.14213562373095
 46
-0.0000000000000009
 79
     1
 49
20.0
 98
        1
 10
-2708.407765425913
 20
-5203.949160503839
1001
GradientColor1ACI
1070
     5
1001
GradientColor2ACI
1070
     2
1001
ACAD
1010
0.0
1020
0.0
1030
0.0
  0
LWPOLYLINE
  5
41E
102
{ACAD_REACTORS
330
41D
102
}
330
1F
100
AcDbEntity
  8
0
100
AcDbPolyline
 90
        4
 70
     1
 43
0.0
 10
902.802588475304
 20
1139.402667556376
 10
982.8025884753042
 20
1139.402667556376
 10
982.8025884753042
 20
1219.402667556376
 10
902.802588475304
 20
1219.402667556376
  0
HATCH
  5
41F
330
1F
100
AcDbEntity
  8
0
100
AcDbHatch
 10
0.0
 20
0.0
 30
0.0
210
0.0
220
0.0
230
1.0
  2
GRASS
 70
     0
 71
     1
 91
        1
 92
        1
 93
        4
 72
     1
 10
1041.957998982431
 20
1139.402667556376
 11
1121.95799898243
 21
1139.402667556376
 72
     1
 10
1121.95799898243
 20
1139.402667556376
 11
1121.95799898243
 21
1219.402667556376
 72
     1
 10
1121.95799898243
 20
1219.402667556376
 11
1041.957998982431
 21
1219.402667556376
 72
     1
 10
1041.957998982431
 20
1219.402667556376
 11
1041.957998982431
 21
1139.402667556376
 97
        1
330
420
 75
     1
 76
     1
 52
0.0
 41
1.0
 77
     0
 78
     3
 53
90.0
 43
0.0
 44
0.0
 45
-17.96051224
 46
17.96051224
 79
     2
 49
4.7625
 49
-31.15852448
 53
45.0
 43
0.0
 44
0.0
 45
-17.9605122421383
 46
17.96051224213831
 79
     2
 49
4.7625
 49
-20.6375
 53
135.0
 43
0.0
 44
0.0
 45
-17.96051224213831
 46
-17.9605122421383
 79
     2
 49
4.7625
 49
-20.6375
 98
        1
 10
-2708.407765425913
 20
-5203.949160503839
1001
GradientColor1ACI
1070
     5
1001
GradientColor2ACI
1070
     2
1001
ACAD
1010
0.0
1020
0.0
1030
0.0
  0
LWPOLYLINE
  5
420
102
{ACAD_REACTORS
330
41F
102
}
330
1F
100
AcDbEntity
  8
0
100
AcDbPolyline
 90
        4
 70
     1
 43
0.0
 10
1041.957998982431
 20
1139.402667556376
 10
1121.95799898243
 20
1139.402667556376
 10
1121.95799898243
 20
1219.402667556376
 10
1041.957998982431
 20
1219.402667556376
  0
HATCH
  5
421
330
1F
100
AcDbEntity
  8
0
100
AcDbHatch
 10
0.0
 20
0.0
 30
0.0
210
0.0
220
0.0
230
1.0
  2
GRATE
 70
     0
 71
     1
 91
        1
 92
        1
 93
        4
 72
     1
 10
1181.113409489557
 20
1139.402667556376
 11
1261.113409489557
 21
1139.402667556376
 72
     1
 10
1261.113409489557
 20
1139.402667556376
 11
1261.113409489557
 21
1219.402667556376
 72
     1
 10
1261.113409489557
 20
1219.402667556376
 11
1181.113409489557
 21
1219.402667556376
 72
     1
 10
1181.113409489557
 20
1219.402667556376
 11
1181.113409489557
 21
1139.402667556376
 97
        1
330
422
 75
     1
 76
     1
 52
0.0
 41
10.0
 77
     0
 78
     2
 53
0.0
 43
0.0
 44
0.0
 45
0.0
 46
7.9375
 79
     0
 53
90.0
 43
0.0
 44
0.0
 45
-31.75
 46
0.0000000000000019
 79
     0
 98
        1
 10
-2708.407765425913
 20
-5203.949160503839
1001
GradientColor1ACI
1070
     5
1001
GradientColor2ACI
1070
     2
1001
ACAD
1010
0.0
1020
0.0
1030
0.0
  0
LWPOLYLINE
  5
422
102
{ACAD_REACTORS
330
421
102
}
330
1F
100
AcDbEntity
  8
0
100
AcDbPolyline
 90
        4
 70
     1
 43
0.0
 10
1181.113409489557
 20
1139.402667556376
 10
1261.113409489557
 20
1139.402667556376
 10
1261.113409489557
 20
1219.402667556376
 10
1181.113409489557
 20
1219.402667556376
  0
HATCH
  5
423
330
1F
100
AcDbEntity
  8
0
100
AcDbHatch
 10
0.0
 20
0.0
 30
0.0
210
0.0
220
0.0
230
1.0
  2
GRAVEL
 70
     0
 71
     1
 91
        1
 92
        1
 93
        4
 72
     1
 10
1320.268819996683
 20
1139.402667556376
 11
1400.268819996683
 21
1139.402667556376
 72
     1
 10
1400.268819996683
 20
1139.402667556376
 11
1400.268819996683
 21
1219.402667556376
 72
     1
 10
1400.268819996683
 20
1219.402667556376
 11
1320.268819996683
 21
1219.402667556376
 72
     1
 10
1320.268819996683
 20
1219.402667556376
 11
1320.268819996683
 21
1139.402667556376
 97
        1
330
424
 75
     1
 76
     1
 52
0.0
 41
1.0
 77
     0
 78
    41
 53
228.0127875
 43
18.288
 44
25.4
 45
-203.2000000159581
 46
-228.5999999858178
 79
     2
 49
3.4172144
 49
-338.30483639565
 53
184.969741
 43
16.002
 44
22.86
 45
304.799999879405
 46
25.40000144697924
 79
     2
 49
5.864047199999999
 49
-580.5404889352399
 53
132.5104471
 43
10.16
 44
22.352
 45
254.0000001072749
 46
-279.3999999024596
 79
     2
 49
4.1348152
 49
-409.3472279409999
 53
267.273689
 43
0.254
 44
16.002
 45
25.40000005319725
 46
507.9999999973311
 79
     2
 49
5.340045199999998
 49
-528.6643742573797
 53
292.83365418
 43
0.0
 44
10.668
 45
-127.0000000106341
 46
304.7999999955546
 79
     2
 49
5.236336999999998
 49
-518.3980774534399
 53
357.273689
 43
2.032
 44
5.842
 45
-507.9999999973311
 46
25.40000005319728
 79
     2
 49
5.340045199999998
 49
-528.6643742573797
 53
37.69424047
 43
7.366
 44
5.587999999999999
 45
-330.199999985359
 46
-254.0000000190041
 79
     2
 49
7.061936599999999
 49
-699.1311531424701
 53
72.25532837
 43
12.954
 44
9.906
 45
177.8000000477929
 46
558.7999999847885
 79
     2
 49
6.6671952
 49
-660.0525660190498
 53
121.42956562
 43
14.986
 44
16.256
 45
-203.2000000288312
 46
330.1999999822602
 79
     2
 49
5.35813
 49
-530.4554569871201
 53
175.2363583
 43
12.192
 44
20.828
 45
279.3999999959952
 46
-25.40000004389256
 79
     2
 49
6.117132799999998
 49
-299.7393694999999
 53
222.3974378
 43
6.096
 44
21.336
 45
-304.7999999902466
 46
-279.4000000106399
 79
     2
 49
7.9107792
 49
-783.1677251217699
 53
138.81407483
 43
25.4
 44
15.748
 45
-177.7999999893351
 46
152.4000000123918
 79
     2
 49
2.700045399999998
 49
-267.30565824344
 53
171.4692344
 43
23.368
 44
17.526
 45
330.2000000088966
 46
-50.79999994237343
 79
     2
 49
5.136819799999998
 49
-508.5463899704
 53
225.0
 43
18.288
 44
18.288
 45
-0.0000000000000036
 46
-25.40000000000239
 79
     2
 49
3.592093399999998
 49
-32.32893108428
 53
203.19859051
 43
16.51
 44
21.336
 45
127.0000000034609
 46
50.79999999109332
 79
     2
 49
1.934413199999999
 49
-191.5062236889399
 53
291.80140949
 43
14.732
 44
20.574
 45
-25.40000000531496
 46
76.19999999822872
 79
     2
 49
2.7356562
 49
-134.0475299
 53
30.96375653
 43
15.748
 44
18.034
 45
76.20000000186383
 46
50.79999999721124
 79
     2
 49
4.443196599999998
 49
-143.6629815291
 53
161.56505118
 43
19.558
 44
20.32
 45
50.80000000132582
 46
-25.39999999733753
 79
     2
 49
3.2128714
 49
-77.10898116827998
 53
16.389540334
 43
0.0
 44
20.574
 45
254.0000000000015
 46
76.20000000000245
 79
     2
 49
4.50088
 49
-445.58826672539
 53
70.34617594
 43
4.318
 44
21.844
 45
-101.6000000092931
 46
-279.3999999967041
 79
     2
 49
3.775989399999998
 49
-373.822156782
 53
293.19859051
 43
19.558
 44
25.4
 45
-50.79999999113262
 46
127.0000000035528
 79
     2
 49
3.868800999999998
 49
-189.5718358889399
 53
343.61045967
 43
21.082
 44
21.844
 45
-254.0000000053229
 46
76.19999998222859
 79
     2
 49
4.500879999999998
 49
-445.5882667253998
 53
339.44395478
 43
0.0
 44
4.826
 45
-126.9999999999986
 46
50.8000000000021
 79
     2
 49
4.340351999999998
 49
-212.6773431310601
 53
294.7751406
 43
4.064
 44
3.302
 45
-127.0000001511693
 46
279.3999999312726
 79
     2
 49
3.636721199999998
 49
-360.0359338072
 53
66.80140949
 43
19.812
 44
0.0
 45
50.79999999202297
 46
127.000000003193
 79
     2
 49
3.868801
 49
-189.57183588894
 53
17.35402464
 43
21.336
 44
3.556
 45
-330.1999999934302
 46
-101.6000000213246
 79
     2
 49
4.2578274
 49
-421.5237598019998
 53
69.44395478
 43
7.366
 44
0.0
 45
-50.8000000008846
 46
-126.9999999996463
 79
     2
 49
2.170175999999999
 49
-214.8475191310601
 53
101.309932474
 43
18.288
 44
0.0
 45
-25.400000000004
 46
101.6000000000037
 79
     2
 49
1.295145999999999
 49
-128.21994964526
 53
165.963756532
 43
18.034
 44
1.27
 45
76.19999999999513
 46
-25.39999999999865
 79
     2
 49
5.236337
 49
-99.49054589069
 53
186.00900596
 43
12.954
 44
2.54
 45
253.9999999986537
 46
25.40000001329353
 79
     2
 49
4.852669999999998
 49
-480.41364863337
 53
303.69006753
 43
15.748
 44
15.748
 45
-25.40000000352969
 46
50.79999999823701
 79
     2
 49
3.663238799999998
 49
-87.9177635968
 53
353.15722659
 43
17.78
 44
12.7
 45
431.8000000026567
 46
-50.79999997739395
 79
     2
 49
6.395567599999998
 49
-633.1600906503099
 53
60.9453959
 43
24.13
 44
11.938
 45
-101.6000000027968
 46
-177.7999999984024
 79
     2
 49
2.615082399999999
 49
-258.8939231811
 53
90.0
 43
25.4
 44
14.224
 45
-25.4
 46
25.4
 79
     2
 49
1.524
 49
-23.876
 53
120.25643716
 43
12.446
 44
3.302
 45
101.5999999875716
 46
-177.8000000070979
 79
     2
 49
3.5286696
 49
-349.339407732
 53
48.01278749999998
 43
10.668
 44
6.349999999999998
 45
203.2000000167534
 46
228.599999985102
 79
     2
 49
6.8344288
 49
-334.88762199565
 53
0.0
 43
15.24
 44
11.43
 45
25.4
 46
25.4
 79
     2
 49
6.604
 49
-18.796
 53
325.3048465
 43
21.844
 44
11.43
 45
254.0000000962153
 46
-177.7999998625458
 79
     2
 49
4.016095599999998
 49
-397.5931672414
 53
254.0546040999999
 43
25.146
 44
9.144
 45
-25.39999999822557
 46
-101.6000000004474
 79
     2
 49
3.698290799999998
 49
-181.21650038772
 53
207.64597536
 43
24.13
 44
5.587999999999999
 45
-482.6000000177335
 46
-253.9999999663075
 79
     2
 49
6.021450999999997
 49
-596.1246442293798
 53
175.42607874
 43
18.796
 44
2.793999999999998
 45
-330.1999999999883
 46
25.39999999999479
 79
     2
 49
6.370294599999998
 49
-630.6584645624
 98
        1
 10
0.0
 20
-446.4352894586773
1001
GradientColor1ACI
1070
     5
1001
GradientColor2ACI
1070
     2
1001
ACAD
1010
0.0
1020
0.0
1030
0.0
  0
LWPOLYLINE
  5
424
102
{ACAD_REACTORS
330
423
102
}
330
1F
100
AcDbEntity
  8
0
100
AcDbPolyline
 90
        4
 70
     1
 43
0.0
 10
1320.268819996683
 20
1139.402667556376
 10
1400.268819996683
 20
1139.402667556376
 10
1400.268819996683
 20
1219.402667556376
 10
1320.268819996683
 20
1219.402667556376
  0
HATCH
  5
425
330
1F
100
AcDbEntity
  8
0
100
AcDbHatch
 10
0.0
 20
0.0
 30
0.0
210
0.0
220
0.0
230
1.0
  2
HEX
 70
     0
 71
     1
 91
        1
 92
        1
 93
        4
 72
     1
 10
1459.42423050381
 20
1139.402667556376
 11
1539.424230503809
 21
1139.402667556376
 72
     1
 10
1539.424230503809
 20
1139.402667556376
 11
1539.424230503809
 21
1219.402667556376
 72
     1
 10
1539.424230503809
 20
1219.402667556376
 11
1459.42423050381
 21
1219.402667556376
 72
     1
 10
1459.42423050381
 20
1219.402667556376
 11
1459.42423050381
 21
1139.402667556376
 97
        1
330
426
 75
     1
 76
     1
 52
0.0
 41
5.0
 77
     0
 78
     3
 53
0.0
 43
0.0
 44
0.0
 45
0.0
 46
27.496306577
 79
     2
 49
15.875
 49
-31.75
 53
120.0
 43
0.0
 44
0.0
 45
-23.81250000592714
 46
-13.74815328849999
 79
     2
 49
15.875
 49
-31.75
 53
60.0
 43
15.875
 44
0.0
 45
-23.81250000592713
 46
13.7481532885
 79
     2
 49
15.875
 49
-31.75
 98
        1
 10
0.0
 20
-446.4352894586773
1001
GradientColor1ACI
1070
     5
1001
GradientColor2ACI
1070
     2
1001
ACAD
1010
0.0
1020
0.0
1030
0.0
  0
LWPOLYLINE
  5
426
102
{ACAD_REACTORS
330
425
102
}
330
1F
100
AcDbEntity
  8
0
100
AcDbPolyline
 90
        4
 70
     1
 43
0.0
 10
1459.42423050381
 20
1139.402667556376
 10
1539.424230503809
 20
1139.402667556376
 10
1539.424230503809
 20
1219.402667556376
 10
1459.42423050381
 20
1219.402667556376
  0
HATCH
  5
427
330
1F
100
AcDbEntity
  8
0
100
AcDbHatch
 10
0.0
 20
0.0
 30
0.0
210
0.0
220
0.0
230
1.0
  2
HONEY
 70
     0
 71
     1
 91
        1
 92
        1
 93
        4
 72
     1
 10
1598.579641010936
 20
1139.402667556376
 11
1678.579641010936
 21
1139.402667556376
 72
     1
 10
1678.579641010936
 20
1139.402667556376
 11
1678.579641010936
 21
1219.402667556376
 72
     1
 10
1678.579641010936
 20
1219.402667556376
 11
1598.579641010936
 21
1219.402667556376
 72
     1
 10
1598.579641010936
 20
1219.402667556376
 11
1598.579641010936
 21
1139.402667556376
 97
        1
330
428
 75
     1
 76
     1
 52
0.0
 41
5.0
 77
     0
 78
     3
 53
0.0
 43
0.0
 44
0.0
 45
23.8125
 46
13.748153225
 79
     2
 49
15.875
 49
-31.75
 53
120.0
 43
0.0
 44
0.0
 45
-23.81249994797095
 46
13.74815331511695
 79
     2
 49
15.875
 49
-31.75
 53
60.0
 43
0.0
 44
0.0
 45
0.0000000520290455
 46
27.49630654011694
 79
     2
 49
-31.75
 49
15.875
 98
        1
 10
0.0
 20
-446.4352894586773
1001
GradientColor1ACI
1070
     5
1001
GradientColor2ACI
1070
     2
1001
ACAD
1010
0.0
1020
0.0
1030
0.0
  0
LWPOLYLINE
  5
428
102
{ACAD_REACTORS
330
427
102
}
330
1F
100
AcDbEntity
  8
0
100
AcDbPolyline
 90
        4
 70
     1
 43
0.0
 10
1598.579641010936
 20
1139.402667556376
 10
1678.579641010936
 20
1139.402667556376
 10
1678.579641010936
 20
1219.402667556376
 10
1598.579641010936
 20
1219.402667556376
  0
HATCH
  5
429
330
1F
100
AcDbEntity
  8
0
100
AcDbHatch
 10
0.0
 20
0.0
 30
0.0
210
0.0
220
0.0
230
1.0
  2
HOUND
 70
     0
 71
     1
 91
        1
 92
        1
 93
        4
 72
     1
 10
1737.735051518062
 20
1139.402667556376
 11
1817.735051518062
 21
1139.402667556376
 72
     1
 10
1817.735051518062
 20
1139.402667556376
 11
1817.735051518062
 21
1219.402667556376
 72
     1
 10
1817.735051518062
 20
1219.402667556376
 11
1737.735051518062
 21
1219.402667556376
 72
     1
 10
1737.735051518062
 20
1219.402667556376
 11
1737.735051518062
 21
1139.402667556376
 97
        1
330
42A
 75
     1
 76
     1
 52
0.0
 41
5.0
 77
     0
 78
     2
 53
0.0
 43
0.0
 44
0.0
 45
31.75
 46
7.9375
 79
     2
 49
127.0
 49
-63.5
 53
90.0
 43
0.0
 44
0.0
 45
-7.9375
 46
-31.75
 79
     2
 49
127.0
 49
-63.5
 98
        1
 10
0.0
 20
-446.4352894586773
1001
GradientColor1ACI
1070
     5
1001
GradientColor2ACI
1070
     2
1001
ACAD
1010
0.0
1020
0.0
1030
0.0
  0
LWPOLYLINE
  5
42A
102
{ACAD_REACTORS
330
429
102
}
330
1F
100
AcDbEntity
  8
0
100
AcDbPolyline
 90
        4
 70
     1
 43
0.0
 10
1737.735051518062
 20
1139.402667556376
 10
1817.735051518062
 20
1139.402667556376
 10
1817.735051518062
 20
1219.402667556376
 10
1737.735051518062
 20
1219.402667556376
  0
LWPOLYLINE
  5
42C
102
{ACAD_REACTORS
330
4C7
102
}
330
1F
100
AcDbEntity
  8
0
100
AcDbPolyline
 90
        4
 70
     1
 43
0.0
 10
1876.890462025189
 20
1139.402667556376
 10
1956.890462025189
 20
1139.402667556376
 10
1956.890462025189
 20
1219.402667556376
 10
1876.890462025189
 20
1219.402667556376
  0
HATCH
  5
42D
330
1F
100
AcDbEntity
  8
0
100
AcDbHatch
 10
0.0
 20
0.0
 30
0.0
210
0.0
220
0.0
230
1.0
  2
JIS_LC_20
 70
     0
 71
     1
 91
        1
 92
        1
 93
        4
 72
     1
 10
2016.045872532315
 20
1139.402667556376
 11
2096.045872532315
 21
1139.402667556376
 72
     1
 10
2096.045872532315
 20
1139.402667556376
 11
2096.045872532315
 21
1219.402667556376
 72
     1
 10
2096.045872532315
 20
1219.402667556376
 11
2016.045872532315
 21
1219.402667556376
 72
     1
 10
2016.045872532315
 20
1219.402667556376
 11
2016.045872532315
 21
1139.402667556376
 97
        1
330
42E
 75
     1
 76
     1
 52
0.0
 41
1.0
 77
     0
 78
     2
 53
45.0
 43
0.0
 44
0.0
 45
-14.14213562373095
 46
14.14213562373095
 79
     0
 53
45.0
 43
0.4
 44
0.0
 45
-14.14213562373095
 46
14.14213562373095
 79
     0
 98
        1
 10
0.0
 20
-446.4352894586773
1001
GradientColor1ACI
1070
     5
1001
GradientColor2ACI
1070
     2
1001
ACAD
1010
0.0
1020
0.0
1030
0.0
  0
LWPOLYLINE
  5
42E
102
{ACAD_REACTORS
330
42D
102
}
330
1F
100
AcDbEntity
  8
0
100
AcDbPolyline
 90
        4
 70
     1
 43
0.0
 10
2016.045872532315
 20
1139.402667556376
 10
2096.045872532315
 20
1139.402667556376
 10
2096.045872532315
 20
1219.402667556376
 10
2016.045872532315
 20
1219.402667556376
  0
TEXT
  5
42F
330
1F
100
AcDbEntity
  8
0
100
AcDbText
 10
880.1218244916752
 20
1106.552098004595
 30
0.0
 40
18.0
  1
_GROUND
 72
     1
 11
942.8025884753042
 21
1115.552098004595
 31
0.0
100
AcDbText
 73
     2
  0
TEXT
  5
430
330
1F
100
AcDbEntity
  8
0
100
AcDbText
 10
1037.940263648187
 20
1106.552098004595
 30
0.0
 40
18.0
  1
GRASS
 72
     1
 11
1081.95799898243
 21
1115.552098004595
 31
0.0
100
AcDbText
 73
     2
  0
TEXT
  5
431
330
1F
100
AcDbEntity
  8
0
100
AcDbText
 10
1177.801676883827
 20
1106.552098004595
 30
0.0
 40
18.0
  1
GRATE
 72
     1
 11
1221.113409489557
 21
1115.552098004595
 31
0.0
100
AcDbText
 73
     2
  0
TEXT
  5
432
330
1F
100
AcDbEntity
  8
0
100
AcDbText
 10
1309.258588073081
 20
1106.552098004595
 30
0.0
 40
18.0
  1
GRAVEL
 72
     1
 11
1360.268819996683
 21
1115.552098004595
 31
0.0
100
AcDbText
 73
     2
  0
TEXT
  5
433
330
1F
100
AcDbEntity
  8
0
100
AcDbText
 10
1473.572252331913
 20
1106.552098004595
 30
0.0
 40
18.0
  1
HEX
 72
     1
 11
1499.42423050381
 21
1115.552098004595
 31
0.0
100
AcDbText
 73
     2
  0
TEXT
  5
434
330
1F
100
AcDbEntity
  8
0
100
AcDbText
 10
1593.868181256502
 20
1106.552098004595
 30
0.0
 40
18.0
  1
HONEY
 72
     1
 11
1638.579641010936
 21
1115.552098004595
 31
0.0
100
AcDbText
 73
     2
  0
TEXT
  5
435
330
1F
100
AcDbEntity
  8
0
100
AcDbText
 10
1731.636142923246
 20
1106.552098004595
 30
0.0
 40
18.0
  1
HOUND
 72
     1
 11
1777.735051518062
 21
1115.552098004595
 31
0.0
100
AcDbText
 73
     2
  0
HATCH
  5
436
330
1F
100
AcDbEntity
  8
0
100
AcDbHatch
 10
0.0
 20
0.0
 30
0.0
210
0.0
220
0.0
230
1.0
  2
JIS_LC_20A
 70
     0
 71
     1
 91
        1
 92
        1
 93
        4
 72
     1
 10
2155.201283039442
 20
1139.402667556376
 11
2235.201283039442
 21
1139.402667556376
 72
     1
 10
2235.201283039442
 20
1139.402667556376
 11
2235.201283039442
 21
1219.402667556376
 72
     1
 10
2235.201283039442
 20
1219.402667556376
 11
2155.201283039442
 21
1219.402667556376
 72
     1
 10
2155.201283039442
 20
1219.402667556376
 11
2155.201283039442
 21
1139.402667556376
 97
        1
330
437
 75
     1
 76
     1
 52
0.0
 41
1.0
 77
     0
 78
     2
 53
45.0
 43
0.0
 44
0.0
 45
-14.14213562373095
 46
14.14213562373095
 79
     0
 53
45.0
 43
1.0
 44
0.0
 45
-14.14213562373095
 46
14.14213562373095
 79
     0
 98
        1
 10
0.0
 20
-446.4352894586773
1001
GradientColor1ACI
1070
     5
1001
GradientColor2ACI
1070
     2
1001
ACAD
1010
0.0
1020
0.0
1030
0.0
  0
LWPOLYLINE
  5
437
102
{ACAD_REACTORS
330
436
102
}
330
1F
100
AcDbEntity
  8
0
100
AcDbPolyline
 90
        4
 70
     1
 43
0.0
 10
2155.201283039442
 20
1139.402667556376
 10
2235.201283039442
 20
1139.402667556376
 10
2235.201283039442
 20
1219.402667556376
 10
2155.201283039442
 20
1219.402667556376
  0
HATCH
  5
438
330
1F
100
AcDbEntity
  8
0
100
AcDbHatch
 10
0.0
 20
0.0
 30
0.0
210
0.0
220
0.0
230
1.0
  2
JIS_LC_8
 70
     0
 71
     1
 91
        1
 92
        1
 93
        4
 72
     1
 10
2294.356693546568
 20
1139.402667556376
 11
2374.356693546568
 21
1139.402667556376
 72
     1
 10
2374.356693546568
 20
1139.402667556376
 11
2374.356693546568
 21
1219.402667556376
 72
     1
 10
2374.356693546568
 20
1219.402667556376
 11
2294.356693546568
 21
1219.402667556376
 72
     1
 10
2294.356693546568
 20
1219.402667556376
 11
2294.356693546568
 21
1139.402667556376
 97
        1
330
439
 75
     1
 76
     1
 52
0.0
 41
1.0
 77
     0
 78
     2
 53
45.0
 43
0.0
 44
0.0
 45
-5.51543289325507
 46
5.515432893255071
 79
     0
 53
45.0
 43
0.4
 44
0.0
 45
-5.51543289325507
 46
5.515432893255071
 79
     0
 98
        1
 10
0.0
 20
-446.4352894586773
1001
GradientColor1ACI
1070
     5
1001
GradientColor2ACI
1070
     2
1001
ACAD
1010
0.0
1020
0.0
1030
0.0
  0
LWPOLYLINE
  5
439
102
{ACAD_REACTORS
330
438
102
}
330
1F
100
AcDbEntity
  8
0
100
AcDbPolyline
 90
        4
 70
     1
 43
0.0
 10
2294.356693546568
 20
1139.402667556376
 10
2374.356693546568
 20
1139.402667556376
 10
2374.356693546568
 20
1219.402667556376
 10
2294.356693546568
 20
1219.402667556376
  0
TEXT
  5
43A
330
1F
100
AcDbEntity
  8
0
100
AcDbText
 10
1879.859084126144
 20
1106.552098004595
 30
0.0
 40
18.0
  1
INSUL
 72
     1
 11
1916.890462025189
 21
1115.552098004595
 31
0.0
100
AcDbText
 73
     2
  0
TEXT
  5
43B
330
1F
100
AcDbEntity
  8
0
100
AcDbText
 10
1994.531547839273
 20
1106.552098004595
 30
0.0
 40
18.0
  1
JIS_LS_20
 72
     1
 11
2056.045872532315
 21
1115.552098004595
 31
0.0
100
AcDbText
 73
     2
  0
HATCH
  5
43C
330
1F
100
AcDbEntity
  8
0
100
AcDbHatch
 10
0.0
 20
0.0
 30
0.0
210
0.0
220
0.0
230
1.0
  2
JIS_LC_8A
 70
     0
 71
     1
 91
        1
 92
        1
 93
        4
 72
     1
 10
2433.512104053694
 20
1139.402667556376
 11
2513.512104053694
 21
1139.402667556376
 72
     1
 10
2513.512104053694
 20
1139.402667556376
 11
2513.512104053694
 21
1219.402667556376
 72
     1
 10
2513.512104053694
 20
1219.402667556376
 11
2433.512104053694
 21
1219.402667556376
 72
     1
 10
2433.512104053694
 20
1219.402667556376
 11
2433.512104053694
 21
1139.402667556376
 97
        1
330
43D
 75
     1
 76
     1
 52
0.0
 41
1.0
 77
     0
 78
     2
 53
45.0
 43
0.0
 44
0.0
 45
-5.51543289325507
 46
5.515432893255071
 79
     0
 53
45.0
 43
1.0
 44
0.0
 45
-5.51543289325507
 46
5.515432893255071
 79
     0
 98
        1
 10
0.0
 20
-446.4352894586773
1001
GradientColor1ACI
1070
     5
1001
GradientColor2ACI
1070
     2
1001
ACAD
1010
0.0
1020
0.0
1030
0.0
  0
LWPOLYLINE
  5
43D
102
{ACAD_REACTORS
330
43C
102
}
330
1F
100
AcDbEntity
  8
0
100
AcDbPolyline
 90
        4
 70
     1
 43
0.0
 10
2433.512104053694
 20
1139.402667556376
 10
2513.512104053694
 20
1139.402667556376
 10
2513.512104053694
 20
1219.402667556376
 10
2433.512104053694
 20
1219.402667556376
  0
HATCH
  5
43E
330
1F
100
AcDbEntity
  8
0
100
AcDbHatch
 10
0.0
 20
0.0
 30
0.0
210
0.0
220
0.0
230
1.0
  2
JIS_RC_10
 70
     0
 71
     1
 91
        1
 92
        1
 93
        4
 72
     1
 10
2572.667514560821
 20
1139.402667556376
 11
2652.667514560821
 21
1139.402667556376
 72
     1
 10
2652.667514560821
 20
1139.402667556376
 11
2652.667514560821
 21
1219.402667556376
 72
     1
 10
2652.667514560821
 20
1219.402667556376
 11
2572.667514560821
 21
1219.402667556376
 72
     1
 10
2572.667514560821
 20
1219.402667556376
 11
2572.667514560821
 21
1139.402667556376
 97
        1
330
43F
 75
     1
 76
     1
 52
0.0
 41
1.0
 77
     0
 78
     3
 53
45.0
 43
0.0
 44
0.0
 45
-7.071067811865473
 46
7.071067811865475
 79
     0
 53
45.0
 43
0.725
 44
0.0
 45
-7.071067811865473
 46
7.071067811865475
 79
     0
 53
45.0
 43
1.45
 44
0.0
 45
-7.071067811865473
 46
7.071067811865475
 79
     0
 98
        1
 10
0.0
 20
-446.4352894586773
1001
GradientColor1ACI
1070
     5
1001
GradientColor2ACI
1070
     2
1001
ACAD
1010
0.0
1020
0.0
1030
0.0
  0
LWPOLYLINE
  5
43F
102
{ACAD_REACTORS
330
43E
102
}
330
1F
100
AcDbEntity
  8
0
100
AcDbPolyline
 90
        4
 70
     1
 43
0.0
 10
2572.667514560821
 20
1139.402667556376
 10
2652.667514560821
 20
1139.402667556376
 10
2652.667514560821
 20
1219.402667556376
 10
2572.667514560821
 20
1219.402667556376
  0
TEXT
  5
440
330
1F
100
AcDbEntity
  8
0
100
AcDbText
 10
2166.009605003971
 20
1106.552098004595
 30
0.0
 40
18.0
  1
_20A
 72
     1
 11
2195.201283039442
 21
1115.552098004595
 31
0.0
100
AcDbText
 73
     2
  0
TEXT
  5
441
330
1F
100
AcDbEntity
  8
0
100
AcDbText
 10
2320.562014146841
 20
1106.552098004595
 30
0.0
 40
18.0
  1
_8
 72
     1
 11
2334.356693546568
 21
1115.552098004595
 31
0.0
100
AcDbText
 73
     2
  0
HATCH
  5
442
330
1F
100
AcDbEntity
  8
0
100
AcDbHatch
 10
0.0
 20
0.0
 30
0.0
210
0.0
220
0.0
230
1.0
  2
JIS_RC_15
 70
     0
 71
     1
 91
        1
 92
        1
 93
        4
 72
     1
 10
2711.822925067947
 20
1139.402667556376
 11
2791.822925067947
 21
1139.402667556376
 72
     1
 10
2791.822925067947
 20
1139.402667556376
 11
2791.822925067947
 21
1219.402667556376
 72
     1
 10
2791.822925067947
 20
1219.402667556376
 11
2711.822925067947
 21
1219.402667556376
 72
     1
 10
2711.822925067947
 20
1219.402667556376
 11
2711.822925067947
 21
1139.402667556376
 97
        1
330
443
 75
     1
 76
     1
 52
0.0
 41
1.0
 77
     0
 78
     3
 53
45.0
 43
0.0
 44
0.0
 45
-10.60660171779821
 46
10.60660171779821
 79
     0
 53
45.0
 43
0.725
 44
0.0
 45
-10.60660171779821
 46
10.60660171779821
 79
     0
 53
45.0
 43
1.45
 44
0.0
 45
-10.60660171779821
 46
10.60660171779821
 79
     0
 98
        1
 10
0.0
 20
-446.4352894586773
1001
GradientColor1ACI
1070
     5
1001
GradientColor2ACI
1070
     2
1001
ACAD
1010
0.0
1020
0.0
1030
0.0
  0
LWPOLYLINE
  5
443
102
{ACAD_REACTORS
330
442
102
}
330
1F
100
AcDbEntity
  8
0
100
AcDbPolyline
 90
        4
 70
     1
 43
0.0
 10
2711.822925067947
 20
1139.402667556376
 10
2791.822925067947
 20
1139.402667556376
 10
2791.822925067947
 20
1219.402667556376
 10
2711.822925067947
 20
1219.402667556376
  0
TEXT
  5
444
330
1F
100
AcDbEntity
  8
0
100
AcDbText
 10
2451.312922607582
 20
1106.552098004595
 30
0.0
 40
18.0
  1
_8A
 72
     1
 11
2473.512104053694
 21
1115.552098004595
 31
0.0
100
AcDbText
 73
     2
  0
TEXT
  5
445
330
1F
100
AcDbEntity
  8
0
100
AcDbText
 10
2566.728223974191
 20
1106.552098004595
 30
0.0
 40
18.0
  1
_RC_10
 72
     1
 11
2612.667514560821
 21
1115.552098004595
 31
0.0
100
AcDbText
 73
     2
  0
TEXT
  5
446
330
1F
100
AcDbEntity
  8
0
100
AcDbText
 10
2731.035749078861
 20
1106.552098004595
 30
0.0
 40
18.0
  1
_15
 72
     1
 11
2751.822925067947
 21
1115.552098004595
 31
0.0
100
AcDbText
 73
     2
  0
HATCH
  5
4C7
330
1F
100
AcDbEntity
  8
0
100
AcDbHatch
 10
0.0
 20
0.0
 30
0.0
210
0.0
220
0.0
230
1.0
  2
INSUL
 70
     0
 71
     1
 91
        1
 92
        1
 93
        4
 72
     1
 10
1876.890462025189
 20
1139.402667556376
 11
1956.890462025189
 21
1139.402667556376
 72
     1
 10
1956.890462025189
 20
1139.402667556376
 11
1956.890462025189
 21
1219.402667556376
 72
     1
 10
1956.890462025189
 20
1219.402667556376
 11
1876.890462025189
 21
1219.402667556376
 72
     1
 10
1876.890462025189
 20
1219.402667556376
 11
1876.890462025189
 21
1139.402667556376
 97
        1
330
42C
 75
     1
 76
     1
 52
0.0
 41
1.0
 77
     0
 78
     3
 53
0.0
 43
0.0
 44
0.0
 45
0.0
 46
9.525
 79
     0
 53
0.0
 43
0.0
 44
3.174999999999998
 45
0.0
 46
9.525
 79
     2
 49
3.174999999999998
 49
-3.174999999999998
 53
0.0
 43
0.0
 44
6.349999999999998
 45
0.0
 46
9.525
 79
     2
 49
3.174999999999998
 49
-3.174999999999998
 98
        1
 10
0.0
 20
0.0
1001
GradientColor1ACI
1070
     5
1001
GradientColor2ACI
1070
     2
1001
ACAD
1010
0.0
1020
0.0
1030
0.0
  0
HATCH
  5
64C
330
1F
100
AcDbEntity
  8
0
100
AcDbHatch
 10
0.0
 20
0.0
 30
0.0
210
0.0
220
0.0
230
1.0
  2
JIS_RC_18
 70
     0
 71
     1
 91
        1
 92
        1
 93
        4
 72
     1
 10
902.802588475304
 20
916.1850228270369
 11
982.8025884753042
 21
916.1850228270369
 72
     1
 10
982.8025884753042
 20
916.1850228270369
 11
982.8025884753042
 21
996.1850228270368
 72
     1
 10
982.8025884753042
 20
996.1850228270368
 11
902.802588475304
 21
996.1850228270368
 72
     1
 10
902.802588475304
 20
996.1850228270368
 11
902.802588475304
 21
916.1850228270369
 97
        1
330
64D
 75
     1
 76
     1
 52
0.0
 41
1.0
 77
     0
 78
     3
 53
45.0
 43
0.0
 44
0.0
 45
-12.72792206135785
 46
12.72792206135785
 79
     0
 53
45.0
 43
1.0
 44
0.0
 45
-12.72792206135785
 46
12.72792206135785
 79
     0
 53
45.0
 43
2.0
 44
0.0
 45
-12.72792206135785
 46
12.72792206135785
 79
     0
 98
        1
 10
-2708.407765425913
 20
-5427.166805233179
1001
GradientColor1ACI
1070
     5
1001
GradientColor2ACI
1070
     2
1001
ACAD
1010
0.0
1020
0.0
1030
0.0
  0
LWPOLYLINE
  5
64D
102
{ACAD_REACTORS
330
64C
102
}
330
1F
100
AcDbEntity
  8
0
100
AcDbPolyline
 90
        4
 70
     1
 43
0.0
 10
902.802588475304
 20
916.1850228270369
 10
982.8025884753042
 20
916.1850228270369
 10
982.8025884753042
 20
996.1850228270368
 10
902.802588475304
 20
996.1850228270368
  0
HATCH
  5
64E
330
1F
100
AcDbEntity
  8
0
100
AcDbHatch
 10
0.0
 20
0.0
 30
0.0
210
0.0
220
0.0
230
1.0
  2
JIS_RC_30
 70
     0
 71
     1
 91
        1
 92
        1
 93
        4
 72
     1
 10
1041.957998982431
 20
916.1850228270369
 11
1121.95799898243
 21
916.1850228270369
 72
     1
 10
1121.95799898243
 20
916.1850228270369
 11
1121.95799898243
 21
996.1850228270368
 72
     1
 10
1121.95799898243
 20
996.1850228270368
 11
1041.957998982431
 21
996.1850228270368
 72
     1
 10
1041.957998982431
 20
996.1850228270368
 11
1041.957998982431
 21
916.1850228270369
 97
        1
330
64F
 75
     1
 76
     1
 52
0.0
 41
1.0
 77
     0
 78
     3
 53
45.0
 43
0.0
 44
0.0
 45
-21.21320343559642
 46
21.21320343559643
 79
     0
 53
45.0
 43
1.0
 44
0.0
 45
-21.21320343559642
 46
21.21320343559643
 79
     0
 53
45.0
 43
2.0
 44
0.0
 45
-21.21320343559642
 46
21.21320343559643
 79
     0
 98
        1
 10
-2708.407765425913
 20
-5427.166805233179
1001
GradientColor1ACI
1070
     5
1001
GradientColor2ACI
1070
     2
1001
ACAD
1010
0.0
1020
0.0
1030
0.0
  0
LWPOLYLINE
  5
64F
102
{ACAD_REACTORS
330
64E
102
}
330
1F
100
AcDbEntity
  8
0
100
AcDbPolyline
 90
        4
 70
     1
 43
0.0
 10
1041.957998982431
 20
916.1850228270369
 10
1121.95799898243
 20
916.1850228270369
 10
1121.95799898243
 20
996.1850228270368
 10
1041.957998982431
 20
996.1850228270368
  0
HATCH
  5
650
330
1F
100
AcDbEntity
  8
0
100
AcDbHatch
 10
0.0
 20
0.0
 30
0.0
210
0.0
220
0.0
230
1.0
  2
JIS_STN_1E
 70
     0
 71
     1
 91
        1
 92
        1
 93
        4
 72
     1
 10
1181.113409489557
 20
916.1850228270369
 11
1261.113409489557
 21
916.1850228270369
 72
     1
 10
1261.113409489557
 20
916.1850228270369
 11
1261.113409489557
 21
996.1850228270368
 72
     1
 10
1261.113409489557
 20
996.1850228270368
 11
1181.113409489557
 21
996.1850228270368
 72
     1
 10
1181.113409489557
 20
996.1850228270368
 11
1181.113409489557
 21
916.1850228270369
 97
        1
330
651
 75
     1
 76
     1
 52
0.0
 41
10.0
 77
     0
 78
     2
 53
45.0
 43
0.0
 44
0.0
 45
-7.071067811865474
 46
7.071067811865475
 79
     0
 53
45.0
 43
7.049999999999999
 44
0.0
 45
-7.071067811865474
 46
7.071067811865475
 79
     2
 49
10.0
 49
-5.0
 98
        1
 10
-2708.407765425913
 20
-5427.166805233179
1001
GradientColor1ACI
1070
     5
1001
GradientColor2ACI
1070
     2
1001
ACAD
1010
0.0
1020
0.0
1030
0.0
  0
LWPOLYLINE
  5
651
102
{ACAD_REACTORS
330
650
102
}
330
1F
100
AcDbEntity
  8
0
100
AcDbPolyline
 90
        4
 70
     1
 43
0.0
 10
1181.113409489557
 20
916.1850228270369
 10
1261.113409489557
 20
916.1850228270369
 10
1261.113409489557
 20
996.1850228270368
 10
1181.113409489557
 20
996.1850228270368
  0
HATCH
  5
652
330
1F
100
AcDbEntity
  8
0
100
AcDbHatch
 10
0.0
 20
0.0
 30
0.0
210
0.0
220
0.0
230
1.0
  2
JIS_STN_2.5
 70
     0
 71
     1
 91
        1
 92
        1
 93
        4
 72
     1
 10
1320.268819996683
 20
916.1850228270369
 11
1400.268819996683
 21
916.1850228270369
 72
     1
 10
1400.268819996683
 20
916.1850228270369
 11
1400.268819996683
 21
996.1850228270368
 72
     1
 10
1400.268819996683
 20
996.1850228270368
 11
1320.268819996683
 21
996.1850228270368
 72
     1
 10
1320.268819996683
 20
996.1850228270368
 11
1320.268819996683
 21
916.1850228270369
 97
        1
330
653
 75
     1
 76
     1
 52
0.0
 41
10.0
 77
     0
 78
     2
 53
45.0
 43
0.0
 44
0.0
 45
-17.67766952966368
 46
17.67766952966369
 79
     0
 53
45.0
 43
17.65
 44
0.0
 45
-17.67766952966368
 46
17.67766952966369
 79
     2
 49
12.0
 49
-5.0
 98
        1
 10
0.0
 20
-669.6529341880164
1001
GradientColor1ACI
1070
     5
1001
GradientColor2ACI
1070
     2
1001
ACAD
1010
0.0
1020
0.0
1030
0.0
  0
LWPOLYLINE
  5
653
102
{ACAD_REACTORS
330
652
102
}
330
1F
100
AcDbEntity
  8
0
100
AcDbPolyline
 90
        4
 70
     1
 43
0.0
 10
1320.268819996683
 20
916.1850228270369
 10
1400.268819996683
 20
916.1850228270369
 10
1400.268819996683
 20
996.1850228270368
 10
1320.268819996683
 20
996.1850228270368
  0
HATCH
  5
654
330
1F
100
AcDbEntity
  8
0
100
AcDbHatch
 10
0.0
 20
0.0
 30
0.0
210
0.0
220
0.0
230
1.0
  2
JIS_WOOD
 70
     0
 71
     1
 91
        1
 92
        1
 93
        4
 72
     1
 10
1459.42423050381
 20
916.1850228270369
 11
1539.424230503809
 21
916.1850228270369
 72
     1
 10
1539.424230503809
 20
916.1850228270369
 11
1539.424230503809
 21
996.1850228270368
 72
     1
 10
1539.424230503809
 20
996.1850228270368
 11
1459.42423050381
 21
996.1850228270368
 72
     1
 10
1459.42423050381
 20
996.1850228270368
 11
1459.42423050381
 21
916.1850228270369
 97
        1
330
655
 75
     1
 76
     1
 52
0.0
 41
10.0
 77
     0
 78
     1
 53
45.0
 43
0.0
 44
0.0
 45
-4.999999991609842
 46
4.999999991609842
 79
     0
 98
        1
 10
0.0
 20
-669.6529341880164
1001
GradientColor1ACI
1070
     5
1001
GradientColor2ACI
1070
     2
1001
ACAD
1010
0.0
1020
0.0
1030
0.0
  0
LWPOLYLINE
  5
655
102
{ACAD_REACTORS
330
654
102
}
330
1F
100
AcDbEntity
  8
0
100
AcDbPolyline
 90
        4
 70
     1
 43
0.0
 10
1459.42423050381
 20
916.1850228270369
 10
1539.424230503809
 20
916.1850228270369
 10
1539.424230503809
 20
996.1850228270368
 10
1459.42423050381
 20
996.1850228270368
  0
HATCH
  5
656
330
1F
100
AcDbEntity
  8
0
100
AcDbHatch
 10
0.0
 20
0.0
 30
0.0
210
0.0
220
0.0
230
1.0
  2
LINE
 70
     0
 71
     1
 91
        1
 92
        1
 93
        4
 72
     1
 10
1598.579641010936
 20
916.1850228270369
 11
1678.579641010936
 21
916.1850228270369
 72
     1
 10
1678.579641010936
 20
916.1850228270369
 11
1678.579641010936
 21
996.1850228270368
 72
     1
 10
1678.579641010936
 20
996.1850228270368
 11
1598.579641010936
 21
996.1850228270368
 72
     1
 10
1598.579641010936
 20
996.1850228270368
 11
1598.579641010936
 21
916.1850228270369
 97
        1
330
657
 75
     1
 76
     1
 52
0.0
 41
5.0
 77
     0
 78
     1
 53
0.0
 43
0.0
 44
0.0
 45
0.0
 46
15.875
 79
     0
 98
        1
 10
0.0
 20
-669.6529341880164
1001
GradientColor1ACI
1070
     5
1001
GradientColor2ACI
1070
     2
1001
ACAD
1010
0.0
1020
0.0
1030
0.0
  0
LWPOLYLINE
  5
657
102
{ACAD_REACTORS
330
656
102
}
330
1F
100
AcDbEntity
  8
0
100
AcDbPolyline
 90
        4
 70
     1
 43
0.0
 10
1598.579641010936
 20
916.1850228270369
 10
1678.579641010936
 20
916.1850228270369
 10
1678.579641010936
 20
996.1850228270368
 10
1598.579641010936
 20
996.1850228270368
  0
HATCH
  5
658
330
1F
100
AcDbEntity
  8
0
100
AcDbHatch
 10
0.0
 20
0.0
 30
0.0
210
0.0
220
0.0
230
1.0
  2
MUDST
 70
     0
 71
     1
 91
        1
 92
        1
 93
        4
 72
     1
 10
1737.735051518062
 20
916.1850228270369
 11
1817.735051518062
 21
916.1850228270369
 72
     1
 10
1817.735051518062
 20
916.1850228270369
 11
1817.735051518062
 21
996.1850228270368
 72
     1
 10
1817.735051518062
 20
996.1850228270368
 11
1737.735051518062
 21
996.1850228270368
 72
     1
 10
1737.735051518062
 20
996.1850228270368
 11
1737.735051518062
 21
916.1850228270369
 97
        1
330
659
 75
     1
 76
     1
 52
0.0
 41
1.0
 77
     0
 78
     1
 53
0.0
 43
0.0
 44
0.0
 45
12.7
 46
6.349999999999999
 79
     6
 49
6.349999999999999
 49
-6.349999999999999
 49
0.0
 49
-6.349999999999999
 49
0.0
 49
-6.349999999999999
 98
        1
 10
0.0
 20
-669.6529341880164
1001
GradientColor1ACI
1070
     5
1001
GradientColor2ACI
1070
     2
1001
ACAD
1010
0.0
1020
0.0
1030
0.0
  0
LWPOLYLINE
  5
659
102
{ACAD_REACTORS
330
658
102
}
330
1F
100
AcDbEntity
  8
0
100
AcDbPolyline
 90
        4
 70
     1
 43
0.0
 10
1737.735051518062
 20
916.1850228270369
 10
1817.735051518062
 20
916.1850228270369
 10
1817.735051518062
 20
996.1850228270368
 10
1737.735051518062
 20
996.1850228270368
  0
HATCH
  5
65A
330
1F
100
AcDbEntity
  8
0
100
AcDbHatch
 10
0.0
 20
0.0
 30
0.0
210
0.0
220
0.0
230
1.0
  2
NET
 70
     0
 71
     1
 91
        1
 92
        1
 93
        4
 72
     1
 10
1876.890462025189
 20
916.1850228270369
 11
1956.890462025189
 21
916.1850228270369
 72
     1
 10
1956.890462025189
 20
916.1850228270369
 11
1956.890462025189
 21
996.1850228270368
 72
     1
 10
1956.890462025189
 20
996.1850228270368
 11
1876.890462025189
 21
996.1850228270368
 72
     1
 10
1876.890462025189
 20
996.1850228270368
 11
1876.890462025189
 21
916.1850228270369
 97
        1
330
65B
 75
     1
 76
     1
 52
0.0
 41
10.0
 77
     0
 78
     2
 53
0.0
 43
0.0
 44
0.0
 45
0.0
 46
31.75
 79
     0
 53
90.0
 43
0.0
 44
0.0
 45
-31.75
 46
0.0000000000000019
 79
     0
 98
        1
 10
0.0
 20
-223.2176447293391
1001
GradientColor1ACI
1070
     5
1001
GradientColor2ACI
1070
     2
1001
ACAD
1010
0.0
1020
0.0
1030
0.0
  0
LWPOLYLINE
  5
65B
102
{ACAD_REACTORS
330
65A
102
}
330
1F
100
AcDbEntity
  8
0
100
AcDbPolyline
 90
        4
 70
     1
 43
0.0
 10
1876.890462025189
 20
916.1850228270369
 10
1956.890462025189
 20
916.1850228270369
 10
1956.890462025189
 20
996.1850228270368
 10
1876.890462025189
 20
996.1850228270368
  0
HATCH
  5
65C
330
1F
100
AcDbEntity
  8
0
100
AcDbHatch
 10
0.0
 20
0.0
 30
0.0
210
0.0
220
0.0
230
1.0
  2
NET3
 70
     0
 71
     1
 91
        1
 92
        1
 93
        4
 72
     1
 10
2016.045872532315
 20
916.1850228270369
 11
2096.045872532315
 21
916.1850228270369
 72
     1
 10
2096.045872532315
 20
916.1850228270369
 11
2096.045872532315
 21
996.1850228270368
 72
     1
 10
2096.045872532315
 20
996.1850228270368
 11
2016.045872532315
 21
996.1850228270368
 72
     1
 10
2016.045872532315
 20
996.1850228270368
 11
2016.045872532315
 21
916.1850228270369
 97
        1
330
65D
 75
     1
 76
     1
 52
0.0
 41
10.0
 77
     0
 78
     3
 53
0.0
 43
0.0
 44
0.0
 45
0.0
 46
31.75
 79
     0
 53
60.0
 43
0.0
 44
0.0
 45
-27.49630657015592
 46
15.875
 79
     0
 53
120.0
 43
0.0
 44
0.0
 45
-27.49630657015593
 46
-15.87499999999999
 79
     0
 98
        1
 10
0.0
 20
-669.6529341880164
1001
GradientColor1ACI
1070
     5
1001
GradientColor2ACI
1070
     2
1001
ACAD
1010
0.0
1020
0.0
1030
0.0
  0
LWPOLYLINE
  5
65D
102
{ACAD_REACTORS
330
65C
102
}
330
1F
100
AcDbEntity
  8
0
100
AcDbPolyline
 90
        4
 70
     1
 43
0.0
 10
2016.045872532315
 20
916.1850228270369
 10
2096.045872532315
 20
916.1850228270369
 10
2096.045872532315
 20
996.1850228270368
 10
2016.045872532315
 20
996.1850228270368
  0
TEXT
  5
65E
330
1F
100
AcDbEntity
  8
0
100
AcDbText
 10
922.0154124862181
 20
883.334453275256
 30
0.0
 40
18.0
  1
_18
 72
     1
 11
942.8025884753042
 21
892.334453275256
 31
0.0
100
AcDbText
 73
     2
  0
TEXT
  5
65F
330
1F
100
AcDbEntity
  8
0
100
AcDbText
 10
1061.170822993344
 20
883.334453275256
 30
0.0
 40
18.0
  1
_30
 72
     1
 11
1081.95799898243
 21
892.334453275256
 31
0.0
100
AcDbText
 73
     2
  0
TEXT
  5
660
330
1F
100
AcDbEntity
  8
0
100
AcDbText
 10
1166.794173473186
 20
883.334453275256
 30
0.0
 40
18.0
  1
_STN_1E
 72
     1
 11
1221.113409489557
 21
892.334453275256
 31
0.0
100
AcDbText
 73
     2
  0
TEXT
  5
661
330
1F
100
AcDbEntity
  8
0
100
AcDbText
 10
1335.988465289998
 20
883.334453275256
 30
0.0
 40
18.0
  1
_2.5
 72
     1
 11
1360.268819996683
 21
892.334453275256
 31
0.0
100
AcDbText
 73
     2
  0
TEXT
  5
662
330
1F
100
AcDbEntity
  8
0
100
AcDbText
 10
1452.115908539281
 20
883.334453275256
 30
0.0
 40
18.0
  1
_WOOD
 72
     1
 11
1499.42423050381
 21
892.334453275256
 31
0.0
100
AcDbText
 73
     2
  0
TEXT
  5
663
330
1F
100
AcDbEntity
  8
0
100
AcDbText
 10
1610.628072115984
 20
883.334453275256
 30
0.0
 40
18.0
  1
LINE
 72
     1
 11
1638.579641010936
 21
892.334453275256
 31
0.0
100
AcDbText
 73
     2
  0
TEXT
  5
664
330
1F
100
AcDbEntity
  8
0
100
AcDbText
 10
1733.03587007195
 20
883.334453275256
 30
0.0
 40
18.0
  1
MUDST
 72
     1
 11
1777.735051518062
 21
892.334453275256
 31
0.0
100
AcDbText
 73
     2
  0
HATCH
  5
665
330
1F
100
AcDbEntity
  8
0
100
AcDbHatch
 10
0.0
 20
0.0
 30
0.0
210
0.0
220
0.0
230
1.0
  2
PLAST
 70
     0
 71
     1
 91
        1
 92
        1
 93
        4
 72
     1
 10
2155.201283039442
 20
916.1850228270369
 11
2235.201283039442
 21
916.1850228270369
 72
     1
 10
2235.201283039442
 20
916.1850228270369
 11
2235.201283039442
 21
996.1850228270368
 72
     1
 10
2235.201283039442
 20
996.1850228270368
 11
2155.201283039442
 21
996.1850228270368
 72
     1
 10
2155.201283039442
 20
996.1850228270368
 11
2155.201283039442
 21
916.1850228270369
 97
        1
330
666
 75
     1
 76
     1
 52
0.0
 41
5.0
 77
     0
 78
     3
 53
0.0
 43
0.0
 44
0.0
 45
0.0
 46
31.75
 79
     0
 53
0.0
 43
0.0
 44
3.96875
 45
0.0
 46
31.75
 79
     0
 53
0.0
 43
0.0
 44
7.9375
 45
0.0
 46
31.75
 79
     0
 98
        1
 10
0.0
 20
-669.6529341880164
1001
GradientColor1ACI
1070
     5
1001
GradientColor2ACI
1070
     2
1001
ACAD
1010
0.0
1020
0.0
1030
0.0
  0
LWPOLYLINE
  5
666
102
{ACAD_REACTORS
330
665
102
}
330
1F
100
AcDbEntity
  8
0
100
AcDbPolyline
 90
        4
 70
     1
 43
0.0
 10
2155.201283039442
 20
916.1850228270369
 10
2235.201283039442
 20
916.1850228270369
 10
2235.201283039442
 20
996.1850228270368
 10
2155.201283039442
 20
996.1850228270368
  0
HATCH
  5
667
330
1F
100
AcDbEntity
  8
0
100
AcDbHatch
 10
0.0
 20
0.0
 30
0.0
210
0.0
220
0.0
230
1.0
  2
PLASTI
 70
     0
 71
     1
 91
        1
 92
        1
 93
        4
 72
     1
 10
2294.356693546568
 20
916.1850228270369
 11
2374.356693546568
 21
916.1850228270369
 72
     1
 10
2374.356693546568
 20
916.1850228270369
 11
2374.356693546568
 21
996.1850228270368
 72
     1
 10
2374.356693546568
 20
996.1850228270368
 11
2294.356693546568
 21
996.1850228270368
 72
     1
 10
2294.356693546568
 20
996.1850228270368
 11
2294.356693546568
 21
916.1850228270369
 97
        1
330
668
 75
     1
 76
     1
 52
0.0
 41
5.0
 77
     0
 78
     4
 53
0.0
 43
0.0
 44
0.0
 45
0.0
 46
31.75
 79
     0
 53
0.0
 43
0.0
 44
3.96875
 45
0.0
 46
31.75
 79
     0
 53
0.0
 43
0.0
 44
7.9375
 45
0.0
 46
31.75
 79
     0
 53
0.0
 43
0.0
 44
19.84375
 45
0.0
 46
31.75
 79
     0
 98
        1
 10
0.0
 20
-669.6529341880164
1001
GradientColor1ACI
1070
     5
1001
GradientColor2ACI
1070
     2
1001
ACAD
1010
0.0
1020
0.0
1030
0.0
  0
LWPOLYLINE
  5
668
102
{ACAD_REACTORS
330
667
102
}
330
1F
100
AcDbEntity
  8
0
100
AcDbPolyline
 90
        4
 70
     1
 43
0.0
 10
2294.356693546568
 20
916.1850228270369
 10
2374.356693546568
 20
916.1850228270369
 10
2374.356693546568
 20
996.1850228270368
 10
2294.356693546568
 20
996.1850228270368
  0
TEXT
  5
669
330
1F
100
AcDbEntity
  8
0
100
AcDbText
 10
1891.744486581805
 20
883.334453275256
 30
0.0
 40
18.0
  1
NET
 72
     1
 11
1916.890462025189
 21
892.334453275256
 31
0.0
100
AcDbText
 73
     2
  0
TEXT
  5
66A
330
1F
100
AcDbEntity
  8
0
100
AcDbText
 10
2023.907400499573
 20
883.334453275256
 30
0.0
 40
18.0
  1
NET3
 72
     1
 11
2056.045872532315
 21
892.334453275256
 31
0.0
100
AcDbText
 73
     2
  0
HATCH
  5
66B
330
1F
100
AcDbEntity
  8
0
100
AcDbHatch
 10
0.0
 20
0.0
 30
0.0
210
0.0
220
0.0
230
1.0
  2
SACNCR
 70
     0
 71
     1
 91
        1
 92
        1
 93
        4
 72
     1
 10
2433.512104053694
 20
916.1850228270369
 11
2513.512104053694
 21
916.1850228270369
 72
     1
 10
2513.512104053694
 20
916.1850228270369
 11
2513.512104053694
 21
996.1850228270368
 72
     1
 10
2513.512104053694
 20
996.1850228270368
 11
2433.512104053694
 21
996.1850228270368
 72
     1
 10
2433.512104053694
 20
996.1850228270368
 11
2433.512104053694
 21
916.1850228270369
 97
        1
330
66C
 75
     1
 76
     1
 52
0.0
 41
10.0
 77
     0
 78
     2
 53
45.0
 43
0.0
 44
0.0
 45
-16.83798022700466
 46
16.83798022700466
 79
     0
 53
45.0
 43
16.838
 44
0.0
 45
-16.83798022700466
 46
16.83798022700466
 79
     2
 49
0.0
 49
-23.8125
 98
        1
 10
0.0
 20
-669.6529341880164
1001
GradientColor1ACI
1070
     5
1001
GradientColor2ACI
1070
     2
1001
ACAD
1010
0.0
1020
0.0
1030
0.0
  0
LWPOLYLINE
  5
66C
102
{ACAD_REACTORS
330
66B
102
}
330
1F
100
AcDbEntity
  8
0
100
AcDbPolyline
 90
        4
 70
     1
 43
0.0
 10
2433.512104053694
 20
916.1850228270369
 10
2513.512104053694
 20
916.1850228270369
 10
2513.512104053694
 20
996.1850228270368
 10
2433.512104053694
 20
996.1850228270368
  0
HATCH
  5
66D
330
1F
100
AcDbEntity
  8
0
100
AcDbHatch
 10
0.0
 20
0.0
 30
0.0
210
0.0
220
0.0
230
1.0
  2
SQUARE
 70
     0
 71
     1
 91
        1
 92
        1
 93
        4
 72
     1
 10
2572.667514560821
 20
916.1850228270369
 11
2652.667514560821
 21
916.1850228270369
 72
     1
 10
2652.667514560821
 20
916.1850228270369
 11
2652.667514560821
 21
996.1850228270368
 72
     1
 10
2652.667514560821
 20
996.1850228270368
 11
2572.667514560821
 21
996.1850228270368
 72
     1
 10
2572.667514560821
 20
996.1850228270368
 11
2572.667514560821
 21
916.1850228270369
 97
        1
330
66E
 75
     1
 76
     1
 52
0.0
 41
6.0
 77
     0
 78
     2
 53
0.0
 43
0.0
 44
0.0
 45
0.0
 46
19.05
 79
     2
 49
19.05
 49
-19.05
 53
90.0
 43
0.0
 44
0.0
 45
-19.05
 46
0.0000000000000012
 79
     2
 49
19.05
 49
-19.05
 98
        1
 10
0.0
 20
-669.6529341880164
1001
GradientColor1ACI
1070
     5
1001
GradientColor2ACI
1070
     2
1001
ACAD
1010
0.0
1020
0.0
1030
0.0
  0
LWPOLYLINE
  5
66E
102
{ACAD_REACTORS
330
66D
102
}
330
1F
100
AcDbEntity
  8
0
100
AcDbPolyline
 90
        4
 70
     1
 43
0.0
 10
2572.667514560821
 20
916.1850228270369
 10
2652.667514560821
 20
916.1850228270369
 10
2652.667514560821
 20
996.1850228270368
 10
2572.667514560821
 20
996.1850228270368
  0
TEXT
  5
66F
330
1F
100
AcDbEntity
  8
0
100
AcDbText
 10
2155.370450842989
 20
883.334453275256
 30
0.0
 40
18.0
  1
PLAST
 72
     1
 11
2195.201283039442
 21
892.334453275256
 31
0.0
100
AcDbText
 73
     2
  0
TEXT
  5
670
330
1F
100
AcDbEntity
  8
0
100
AcDbText
 10
2291.032682632516
 20
883.334453275256
 30
0.0
 40
18.0
  1
PLASTI
 72
     1
 11
2334.356693546568
 21
892.334453275256
 31
0.0
100
AcDbText
 73
     2
  0
HATCH
  5
671
330
1F
100
AcDbEntity
  8
0
100
AcDbHatch
 10
0.0
 20
0.0
 30
0.0
210
0.0
220
0.0
230
1.0
  2
STARS
 70
     0
 71
     1
 91
        1
 92
        1
 93
        4
 72
     1
 10
2711.822925067947
 20
916.1850228270369
 11
2791.822925067947
 21
916.1850228270369
 72
     1
 10
2791.822925067947
 20
916.1850228270369
 11
2791.822925067947
 21
996.1850228270368
 72
     1
 10
2791.822925067947
 20
996.1850228270368
 11
2711.822925067947
 21
996.1850228270368
 72
     1
 10
2711.822925067947
 20
996.1850228270368
 11
2711.822925067947
 21
916.1850228270369
 97
        1
330
672
 75
     1
 76
     1
 52
0.0
 41
5.0
 77
     0
 78
     3
 53
0.0
 43
0.0
 44
0.0
 45
0.0
 46
27.496306577
 79
     2
 49
15.875
 49
-15.875
 53
60.0
 43
0.0
 44
0.0
 45
-23.81250000592713
 46
13.7481532885
 79
     2
 49
15.875
 49
-15.875
 53
120.0
 43
7.9375
 44
13.748153352
 45
-23.81250000592714
 46
-13.74815328849999
 79
     2
 49
15.875
 49
-15.875
 98
        1
 10
0.0
 20
-669.6529341880164
1001
GradientColor1ACI
1070
     5
1001
GradientColor2ACI
1070
     2
1001
ACAD
1010
0.0
1020
0.0
1030
0.0
  0
LWPOLYLINE
  5
672
102
{ACAD_REACTORS
330
671
102
}
330
1F
100
AcDbEntity
  8
0
100
AcDbPolyline
 90
        4
 70
     1
 43
0.0
 10
2711.822925067947
 20
916.1850228270369
 10
2791.822925067947
 20
916.1850228270369
 10
2791.822925067947
 20
996.1850228270368
 10
2711.822925067947
 20
996.1850228270368
  0
TEXT
  5
673
330
1F
100
AcDbEntity
  8
0
100
AcDbText
 10
2420.420698869519
 20
883.334453275256
 30
0.0
 40
18.0
  1
SACNCR
 72
     1
 11
2473.512104053694
 21
892.334453275256
 31
0.0
100
AcDbText
 73
     2
  0
TEXT
  5
674
330
1F
100
AcDbEntity
  8
0
100
AcDbText
 10
2559.569970222486
 20
883.334453275256
 30
0.0
 40
18.0
  1
SQUARE
 72
     1
 11
2612.667514560821
 21
892.334453275256
 31
0.0
100
AcDbText
 73
     2
  0
TEXT
  5
675
330
1F
100
AcDbEntity
  8
0
100
AcDbText
 10
2709.90478045676
 20
883.334453275256
 30
0.0
 40
18.0
  1
STARS
 72
     1
 11
2751.822925067947
 21
892.334453275256
 31
0.0
100
AcDbText
 73
     2
  0
HATCH
  5
76F
330
1F
100
AcDbEntity
  8
0
100
AcDbHatch
 10
0.0
 20
0.0
 30
0.0
210
0.0
220
0.0
230
1.0
  2
STEEL
 70
     0
 71
     1
 91
        1
 92
        1
 93
        4
 72
     1
 10
902.802588475304
 20
692.9673780976977
 11
982.8025884753042
 21
692.9673780976977
 72
     1
 10
982.8025884753042
 20
692.9673780976977
 11
982.8025884753042
 21
772.9673780976977
 72
     1
 10
982.8025884753042
 20
772.9673780976977
 11
902.802588475304
 21
772.9673780976977
 72
     1
 10
902.802588475304
 20
772.9673780976977
 11
902.802588475304
 21
692.9673780976977
 97
        1
330
770
 75
     1
 76
     1
 52
0.0
 41
5.0
 77
     0
 78
     2
 53
45.0
 43
0.0
 44
0.0
 45
-11.22532015133644
 46
11.22532015133644
 79
     0
 53
45.0
 43
0.0
 44
7.9375
 45
-11.22532015133644
 46
11.22532015133644
 79
     0
 98
        1
 10
-2708.407765425913
 20
-5650.384449962517
1001
GradientColor1ACI
1070
     5
1001
GradientColor2ACI
1070
     2
1001
ACAD
1010
0.0
1020
0.0
1030
0.0
  0
LWPOLYLINE
  5
770
102
{ACAD_REACTORS
330
76F
102
}
330
1F
100
AcDbEntity
  8
0
100
AcDbPolyline
 90
        4
 70
     1
 43
0.0
 10
902.802588475304
 20
692.9673780976977
 10
982.8025884753042
 20
692.9673780976977
 10
982.8025884753042
 20
772.9673780976977
 10
902.802588475304
 20
772.9673780976977
  0
HATCH
  5
771
330
1F
100
AcDbEntity
  8
0
100
AcDbHatch
 10
0.0
 20
0.0
 30
0.0
210
0.0
220
0.0
230
1.0
  2
SWAMP
 70
     0
 71
     1
 91
        1
 92
        1
 93
        4
 72
     1
 10
1041.957998982431
 20
692.9673780976977
 11
1121.95799898243
 21
692.9673780976977
 72
     1
 10
1121.95799898243
 20
692.9673780976977
 11
1121.95799898243
 21
772.9673780976977
 72
     1
 10
1121.95799898243
 20
772.9673780976977
 11
1041.957998982431
 21
772.9673780976977
 72
     1
 10
1041.957998982431
 20
772.9673780976977
 11
1041.957998982431
 21
692.9673780976977
 97
        1
330
772
 75
     1
 76
     1
 52
0.0
 41
1.0
 77
     0
 78
     6
 53
0.0
 43
0.0
 44
0.0
 45
12.7
 46
21.9970452362
 79
     2
 49
3.174999999999999
 49
-22.225
 53
90.0
 43
1.587499999999999
 44
0.0
 45
-12.7
 46
21.9970452362
 79
     2
 49
1.587499999999999
 49
-42.4065904724
 53
90.0
 43
1.984375
 44
0.0
 45
-12.7
 46
21.9970452362
 79
     2
 49
1.27
 49
-42.7240904724
 53
90.0
 43
1.190625
 44
0.0
 45
-12.7
 46
21.9970452362
 79
     2
 49
1.27
 49
-42.7240904724
 53
60.0
 43
2.38125
 44
0.0
 45
-12.69999998274466
 46
21.99704524616237
 79
     2
 49
1.016
 49
-24.384
 53
120.0
 43
0.79375
 44
0.0
 45
-25.39999998274466
 46
0.0000000099623776
 79
     2
 49
1.015999999999999
 49
-24.384
 98
        1
 10
-2708.407765425913
 20
-5650.384449962517
1001
GradientColor1ACI
1070
     5
1001
GradientColor2ACI
1070
     2
1001
ACAD
1010
0.0
1020
0.0
1030
0.0
  0
LWPOLYLINE
  5
772
102
{ACAD_REACTORS
330
771
102
}
330
1F
100
AcDbEntity
  8
0
100
AcDbPolyline
 90
        4
 70
     1
 43
0.0
 10
1041.957998982431
 20
692.9673780976977
 10
1121.95799898243
 20
692.9673780976977
 10
1121.95799898243
 20
772.9673780976977
 10
1041.957998982431
 20
772.9673780976977
  0
HATCH
  5
773
330
1F
100
AcDbEntity
  8
0
100
AcDbHatch
 10
0.0
 20
0.0
 30
0.0
210
0.0
220
0.0
230
1.0
  2
TRANS
 70
     0
 71
     1
 91
        1
 92
        1
 93
        4
 72
     1
 10
1181.113409489557
 20
692.9673780976977
 11
1261.113409489557
 21
692.9673780976977
 72
     1
 10
1261.113409489557
 20
692.9673780976977
 11
1261.113409489557
 21
772.9673780976977
 72
     1
 10
1261.113409489557
 20
772.9673780976977
 11
1181.113409489557
 21
772.9673780976977
 72
     1
 10
1181.113409489557
 20
772.9673780976977
 11
1181.113409489557
 21
692.9673780976977
 97
        1
330
774
 75
     1
 76
     1
 52
0.0
 41
5.0
 77
     0
 78
     2
 53
0.0
 43
0.0
 44
0.0
 45
0.0
 46
31.75
 79
     0
 53
0.0
 43
0.0
 44
15.875
 45
0.0
 46
31.75
 79
     2
 49
15.875
 49
-15.875
 98
        1
 10
-2708.407765425913
 20
-5650.384449962517
1001
GradientColor1ACI
1070
     5
1001
GradientColor2ACI
1070
     2
1001
ACAD
1010
0.0
1020
0.0
1030
0.0
  0
LWPOLYLINE
  5
774
102
{ACAD_REACTORS
330
773
102
}
330
1F
100
AcDbEntity
  8
0
100
AcDbPolyline
 90
        4
 70
     1
 43
0.0
 10
1181.113409489557
 20
692.9673780976977
 10
1261.113409489557
 20
692.9673780976977
 10
1261.113409489557
 20
772.9673780976977
 10
1181.113409489557
 20
772.9673780976977
  0
HATCH
  5
775
330
1F
100
AcDbEntity
  8
0
100
AcDbHatch
 10
0.0
 20
0.0
 30
0.0
210
0.0
220
0.0
230
1.0
  2
TRIANG
 70
     0
 71
     1
 91
        1
 92
        1
 93
        4
 72
     1
 10
1320.268819996683
 20
692.9673780976977
 11
1400.268819996683
 21
692.9673780976977
 72
     1
 10
1400.268819996683
 20
692.9673780976977
 11
1400.268819996683
 21
772.9673780976977
 72
     1
 10
1400.268819996683
 20
772.9673780976977
 11
1320.268819996683
 21
772.9673780976977
 72
     1
 10
1320.268819996683
 20
772.9673780976977
 11
1320.268819996683
 21
692.9673780976977
 97
        1
330
776
 75
     1
 76
     1
 52
0.0
 41
5.0
 77
     0
 78
     3
 53
60.0
 43
0.0
 44
0.0
 45
-23.81249995389809
 46
41.24445982861694
 79
     2
 49
23.8125
 49
-23.8125
 53
120.0
 43
0.0
 44
0.0
 45
-47.62499995389809
 46
0.0000000266169575
 79
     2
 49
23.8125
 49
-23.8125
 53
0.0
 43
-11.90625
 44
20.622229901
 45
23.8125
 46
41.24445980199999
 79
     2
 49
23.8125
 49
-23.8125
 98
        1
 10
0.0
 20
-892.8705789173555
1001
GradientColor1ACI
1070
     5
1001
GradientColor2ACI
1070
     2
1001
ACAD
1010
0.0
1020
0.0
1030
0.0
  0
LWPOLYLINE
  5
776
102
{ACAD_REACTORS
330
775
102
}
330
1F
100
AcDbEntity
  8
0
100
AcDbPolyline
 90
        4
 70
     1
 43
0.0
 10
1320.268819996683
 20
692.9673780976977
 10
1400.268819996683
 20
692.9673780976977
 10
1400.268819996683
 20
772.9673780976977
 10
1320.268819996683
 20
772.9673780976977
  0
LWPOLYLINE
  5
778
102
{ACAD_REACTORS
330
799
102
}
330
1F
100
AcDbEntity
  8
0
100
AcDbPolyline
 90
        4
 70
     1
 43
0.0
 10
1459.42423050381
 20
692.9673780976977
 10
1539.424230503809
 20
692.9673780976977
 10
1539.424230503809
 20
772.9673780976977
 10
1459.42423050381
 20
772.9673780976977
  0
TEXT
  5
781
330
1F
100
AcDbEntity
  8
0
100
AcDbText
 10
902.9717562788514
 20
660.1168085459168
 30
0.0
 40
18.0
  1
STEEL
 72
     1
 11
942.8025884753042
 21
669.1168085459168
 31
0.0
100
AcDbText
 73
     2
  0
TEXT
  5
782
330
1F
100
AcDbEntity
  8
0
100
AcDbText
 10
1034.45936323891
 20
660.1168085459168
 30
0.0
 40
18.0
  1
SWAMP
 72
     1
 11
1081.95799898243
 21
669.1168085459168
 31
0.0
100
AcDbText
 73
     2
  0
TEXT
  5
783
330
1F
100
AcDbEntity
  8
0
100
AcDbText
 10
1178.501540458179
 20
660.1168085459168
 30
0.0
 40
18.0
  1
TRANS
 72
     1
 11
1221.113409489557
 21
669.1168085459168
 31
0.0
100
AcDbText
 73
     2
  0
TEXT
  5
784
330
1F
100
AcDbEntity
  8
0
100
AcDbText
 10
1312.770184253163
 20
660.1168085459168
 30
0.0
 40
18.0
  1
TRIANG
 72
     1
 11
1360.268819996683
 21
669.1168085459168
 31
0.0
100
AcDbText
 73
     2
  0
TEXT
  5
785
330
1F
100
AcDbEntity
  8
0
100
AcDbText
 10
1452.625458334642
 20
660.1168085459168
 30
0.0
 40
18.0
  1
ZIGZAG
 72
     1
 11
1499.42423050381
 21
669.1168085459168
 31
0.0
100
AcDbText
 73
     2
  0
HATCH
  5
799
330
1F
100
AcDbEntity
  8
0
100
AcDbHatch
 10
0.0
 20
0.0
 30
0.0
210
0.0
220
0.0
230
1.0
  2
ZIGZAG
 70
     0
 71
     1
 91
        1
 92
        1
 93
        4
 72
     1
 10
1459.42423050381
 20
692.9673780976977
 11
1539.424230503809
 21
692.9673780976977
 72
     1
 10
1539.424230503809
 20
692.9673780976977
 11
1539.424230503809
 21
772.9673780976977
 72
     1
 10
1539.424230503809
 20
772.9673780976977
 11
1459.42423050381
 21
772.9673780976977
 72
     1
 10
1459.42423050381
 20
772.9673780976977
 11
1459.42423050381
 21
692.9673780976977
 97
        1
330
778
 75
     1
 76
     1
 52
0.0
 41
1.0
 77
     0
 78
     2
 53
0.0
 43
0.0
 44
0.0
 45
3.174999999999999
 46
3.174999999999999
 79
     2
 49
3.174999999999999
 49
-3.174999999999999
 53
90.0
 43
3.174999999999999
 44
0.0
 45
-3.174999999999999
 46
3.174999999999999
 79
     2
 49
3.174999999999999
 49
-3.174999999999999
 98
        1
 10
0.0
 20
0.0
1001
GradientColor1ACI
1070
     5
1001
GradientColor2ACI
1070
     2
1001
ACAD
1010
0.0
1020
0.0
1030
0.0
  0
ENDSEC
  0
SECTION
  2
OBJECTS
  0
DICTIONARY
  5
C
330
0
100
AcDbDictionary
281
     1
  3
ACAD_CIP_PREVIOUS_PRODUCT_INFO
350
216
  3
ACAD_COLOR
350
6B
  3
ACAD_GROUP
350
D
  3
ACAD_LAYOUT
350
1A
  3
ACAD_MATERIAL
350
6A
  3
ACAD_MLEADERSTYLE
350
12D
  3
ACAD_MLINESTYLE
350
17
  3
ACAD_PLOTSETTINGS
350
19
  3
ACAD_PLOTSTYLENAME
350
E
  3
ACAD_SCALELIST
350
10C
  3
ACAD_TABLESTYLE
350
7E
  3
ACAD_VISUALSTYLE
350
EF
  3
ACDB_RECOMPOSE_DATA
350
79F
  3
AcDbVariableDictionary
350
5E
  3
DWGPROPS
350
7A0
  0
DICTIONARY
  5
1FF
330
2
100
AcDbDictionary
280
     1
281
     1
  3
ACAD_LAYERSTATES
360
200
  0
DICTIONARY
  5
13C
330
10
100
AcDbDictionary
280
     1
281
     1
  0
DICTIONARY
  5
1CE
330
1F
100
AcDbDictionary
280
     1
281
     1
  3
ACAD_SORTENTS
360
222
  0
XRECORD
  5
216
102
{ACAD_REACTORS
330
C
102
}
330
C
100
AcDbXrecord
280
     1
300
ACD
300
2012
300
ACD_F_S
  0
DICTIONARY
  5
6B
102
{ACAD_REACTORS
330
C
102
}
330
C
100
AcDbDictionary
281
     1
  0
DICTIONARY
  5
D
102
{ACAD_REACTORS
330
C
102
}
330
C
100
AcDbDictionary
281
     1
  0
DICTIONARY
  5
1A
102
{ACAD_REACTORS
330
C
102
}
330
C
100
AcDbDictionary
281
     1
  3
Layout1
350
D3
  3
Layout2
350
D7
  3
Model
350
22
  0
DICTIONARY
  5
6A
102
{ACAD_REACTORS
330
C
102
}
330
C
100
AcDbDictionary
281
     1
  3
ByBlock
350
ED
  3
ByLayer
350
EC
  3
Global
350
EE
  0
DICTIONARY
  5
12D
102
{ACAD_REACTORS
330
C
102
}
330
C
100
AcDbDictionary
281
     1
  3
Annotativa
350
13B
  3
Standard
350
12E
  0
DICTIONARY
  5
17
102
{ACAD_REACTORS
330
C
102
}
330
C
100
AcDbDictionary
281
     1
  3
Standard
350
18
  0
DICTIONARY
  5
19
102
{ACAD_REACTORS
330
C
102
}
330
C
100
AcDbDictionary
281
     1
  0
ACDBDICTIONARYWDFLT
  5
E
102
{ACAD_REACTORS
330
C
102
}
330
C
100
AcDbDictionary
281
     1
  3
Normal
350
F
100
AcDbDictionaryWithDefault
340
F
  0
DICTIONARY
  5
10C
102
{ACAD_REACTORS
330
C
102
}
330
C
100
AcDbDictionary
281
     1
  3
A0
350
10D
  3
A1
350
1BE
  3
A2
350
1BF
  3
A3
350
1C0
  3
A4
350
1C1
  3
A5
350
1C2
  3
A6
350
1C3
  3
A7
350
1C4
  3
A8
350
1C5
  3
A9
350
1C6
  3
B0
350
1C7
  3
B1
350
1C8
  3
B2
350
1C9
  3
B3
350
1CA
  3
B4
350
1CB
  3
B5
350
1CC
  3
B6
350
1CD
  0
DICTIONARY
  5
7E
102
{ACAD_REACTORS
330
C
102
}
330
C
100
AcDbDictionary
281
     1
  3
Standard
350
7F
  0
DICTIONARY
  5
EF
102
{ACAD_REACTORS
330
C
102
}
330
C
100
AcDbDictionary
281
     1
  3
2dWireframe
350
F5
  3
Basic
350
F4
  3
Brighten
350
FB
  3
ColorChange
350
FF
  3
Conceptual
350
F8
  3
Dim
350
FA
  3
EdgeColorOff
350
1E6
  3
Facepattern
350
FE
  3
Flat
350
F0
  3
FlatWithEdges
350
F1
  3
Gouraud
350
F2
  3
GouraudWithEdges
350
F3
  3
Hidden
350
F7
  3
JitterOff
350
1E4
  3
Linepattern
350
FD
  3
OverhangOff
350
1E5
  3
Realistic
350
F9
  3
Shaded
350
1F3
  3
Shaded with edges
350
1F2
  3
Shades of Gray
350
1EF
  3
Sketchy
350
1F0
  3
Thicken
350
FC
  3
Wireframe
350
F6
  3
X-Ray
350
1F1
  0
XRECORD
  5
79F
102
{ACAD_REACTORS
330
C
102
}
330
C
100
AcDbXrecord
280
     1
 90
        1
330
7F
  0
DICTIONARY
  5
5E
102
{ACAD_REACTORS
330
C
102
}
330
C
100
AcDbDictionary
281
     1
  3
CANNOSCALE
350
146
  3
CMLEADERSTYLE
350
145
  3
CTABLESTYLE
350
84
  3
DIMASSOC
350
5F
  3
HIDETEXT
350
63
  3
INDEXCTL
350
241
  3
LAYEREVAL
350
1AE
  3
LAYERNOTIFY
350
1AF
  3
LIGHTINGUNITS
350
23F
  3
MSLTSCALE
350
23E
  3
PSOLHEIGHT
350
679
  3
PSOLWIDTH
350
678
  3
SORTENTS
350
240
  3
XCLIPFRAME
350
67A
  0
XRECORD
  5
7A0
102
{ACAD_REACTORS
330
C
102
}
330
C
100
AcDbXrecord
280
     1
  1
DWGPROPS COOKIE
  2

  3

  4

  6

  7

  8
ekoteknik
  9

300
=
301
=
302
=
303
=
304
=
305
=
306
=
307
=
308
=
309
=
 40
0.0669423726851852
 41
2458901.312170324
 42
2458901.533973866
  1

 90
        0
  0
DICTIONARY
  5
200
102
{ACAD_REACTORS
330
1FF
102
}
330
1FF
100
AcDbDictionary
281
     1
  0
SORTENTSTABLE
  5
222
102
{ACAD_REACTORS
330
1CE
102
}
330
1CE
100
AcDbSortentsTable
330
1F
331
773
  5
773
331
76F
  5
76F
331
2A6
  5
2A9
331
2A2
  5
292
331
28E
  5
295
331
386
  5
386
331
382
  5
382
331
28A
  5
290
331
37E
  5
37E
331
665
  5
665
331
37A
  5
37A
331
661
  5
661
331
365
  5
340
331
361
  5
370
331
23A
  5
23A
331
42D
  5
42E
331
376
  5
376
331
65D
  5
65D
331
372
  5
36E
331
429
  5
429
331
22A
  5
227
331
2B9
  5
2B9
331
659
  5
659
331
35E
  5
36D
331
425
  5
425
331
674
  5
674
331
655
  5
655
331
35A
  5
369
331
421
  5
421
331
670
  5
670
331
651
  5
651
331
2AD
  5
2B3
331
2A9
  5
2AD
331
29D
  5
2A6
331
41D
  5
41D
331
356
  5
365
331
237
  5
237
331
66C
  5
66C
331
352
  5
361
331
299
  5
2A2
331
668
  5
668
331
34E
  5
35C
331
399
  5
399
331
444
  5
445
331
440
  5
441
331
782
  5
783
331
64C
  5
64C
331
227
  5
228
331
2B5
  5
2AA
331
2B1
  5
2B8
331
223
  5
224
331
395
  5
395
331
295
  5
29E
331
36E
  5
362
331
391
  5
391
331
43C
  5
43D
331
36A
  5
34E
331
38D
  5
38D
331
438
  5
439
331
389
  5
389
331
434
  5
435
331
430
  5
431
331
776
  5
776
331
772
  5
772
331
2A5
  5
29A
331
2A1
  5
28E
331
33C
  5
33E
331
385
  5
385
331
381
  5
381
331
37D
  5
37D
331
664
  5
664
331
379
  5
379
331
660
  5
660
331
799
  5
778
331
364
  5
33C
331
23D
  5
23D
331
239
  5
239
331
360
  5
36F
331
42C
  5
42D
331
375
  5
375
331
65C
  5
65C
331
371
  5
36A
331
428
  5
428
331
229
  5
22C
331
2B8
  5
2B4
331
658
  5
658
331
35D
  5
36C
331
424
  5
424
331
673
  5
673
331
654
  5
654
331
420
  5
420
331
650
  5
650
331
2AC
  5
2B2
331
2A8
  5
2AC
331
29C
  5
2A5
331
66F
  5
66F
331
236
  5
236
331
66B
  5
66B
331
351
  5
360
331
232
  5
22F
331
298
  5
2A1
331
34D
  5
35A
331
39C
  5
39C
331
349
  5
354
331
398
  5
398
331
443
  5
444
331
785
  5
799
331
781
  5
782
331
64F
  5
64F
331
226
  5
225
331
2B4
  5
2A8
331
2B0
  5
2B7
331
294
  5
29B
331
394
  5
394
331
43F
  5
440
331
36D
  5
356
331
21E
  5
221
331
369
  5
34C
331
390
  5
390
331
43B
  5
43C
331
290
  5
297
331
345
  5
34F
331
38C
  5
38C
331
437
  5
438
331
341
  5
34B
331
388
  5
388
331
433
  5
434
331
775
  5
775
331
771
  5
771
331
2A4
  5
298
331
2A0
  5
28A
331
384
  5
384
331
28C
  5
294
331
380
  5
380
331
4C7
  5
42C
331
288
  5
28C
331
667
  5
667
331
37C
  5
37C
331
663
  5
663
331
378
  5
378
331
363
  5
372
331
23C
  5
23C
331
42F
  5
430
331
238
  5
238
331
22C
  5
230
331
65F
  5
65F
331
374
  5
374
331
65B
  5
65B
331
370
  5
368
331
427
  5
427
331
228
  5
22A
331
657
  5
657
331
35C
  5
36B
331
423
  5
423
331
672
  5
672
331
653
  5
653
331
358
  5
367
331
2AB
  5
2B1
331
29F
  5
286
331
41F
  5
41F
331
29B
  5
2A4
331
66E
  5
66E
331
354
  5
363
331
66A
  5
66A
331
350
  5
35E
331
231
  5
22D
331
34C
  5
358
331
39B
  5
39B
331
446
  5
4C7
331
442
  5
443
331
784
  5
785
331
778
  5
781
331
64E
  5
64E
331
2B7
  5
2B0
331
2B3
  5
29F
331
225
  5
226
331
221
  5
21E
331
397
  5
397
331
393
  5
393
331
43E
  5
43F
331
36C
  5
352
331
368
  5
349
331
38F
  5
38F
331
43A
  5
43B
331
38B
  5
38B
331
436
  5
437
331
340
  5
347
331
432
  5
433
331
774
  5
774
331
770
  5
770
331
2A7
  5
2AB
331
2A3
  5
296
331
33E
  5
341
331
387
  5
387
331
383
  5
383
331
37F
  5
37F
331
666
  5
666
331
37B
  5
37B
331
662
  5
662
331
366
  5
343
331
362
  5
371
331
23B
  5
23B
331
42E
  5
42F
331
22F
  5
229
331
377
  5
377
331
65E
  5
65E
331
373
  5
373
331
42A
  5
42A
331
22B
  5
22E
331
65A
  5
65A
331
426
  5
426
331
675
  5
675
331
656
  5
656
331
422
  5
422
331
671
  5
671
331
652
  5
652
331
2AE
  5
2B5
331
2AA
  5
2AF
331
41E
  5
41E
331
29E
  5
2A7
331
357
  5
366
331
66D
  5
66D
331
29A
  5
2A3
331
669
  5
669
331
34F
  5
35D
331
230
  5
22B
331
34B
  5
357
331
39A
  5
39A
331
445
  5
446
331
441
  5
442
331
783
  5
784
331
64D
  5
64D
331
2B6
  5
2AE
331
2B2
  5
29D
331
224
  5
223
331
296
  5
2A0
331
36F
  5
364
331
396
  5
396
331
392
  5
392
331
292
  5
299
331
43D
  5
43E
331
36B
  5
350
331
347
  5
351
331
38E
  5
38E
331
439
  5
43A
331
343
  5
34D
331
38A
  5
38A
331
435
  5
436
331
431
  5
432
  0
LAYOUT
  5
D3
102
{ACAD_XDICTIONARY
360
7A3
102
}
102
{ACAD_REACTORS
330
1A
102
}
330
1A
100
AcDbPlotSettings
  1

  2
C:\Documents and Settings\basas\Application Data\Autodesk\AutoCAD 2005\R16.1\enu\plotters\Default Windows System Printer.pc3
  4

  6

 40
0.0
 41
0.0
 42
0.0
 43
0.0
 44
0.0
 45
0.0
 46
0.0
 47
0.0
 48
0.0
 49
0.0
140
0.0
141
0.0
142
1.0
143
1.0
 70
   688
 72
     0
 73
     0
 74
     5
  7

 75
    16
147
1.0
148
0.0
149
0.0
100
AcDbLayout
  1
Layout1
 70
     1
 71
     1
 10
0.0
 20
0.0
 11
12.0
 21
9.0
 12
0.0
 22
0.0
 32
0.0
 14
0.0
 24
0.0
 34
0.0
 15
0.0
 25
0.0
 35
0.0
146
0.0
 13
0.0
 23
0.0
 33
0.0
 16
1.0
 26
0.0
 36
0.0
 17
0.0
 27
1.0
 37
0.0
 76
     0
330
D2
  0
LAYOUT
  5
D7
102
{ACAD_XDICTIONARY
360
7A5
102
}
102
{ACAD_REACTORS
330
1A
102
}
330
1A
100
AcDbPlotSettings
  1

  2
C:\Documents and Settings\basas\Application Data\Autodesk\AutoCAD 2005\R16.1\enu\plotters\Default Windows System Printer.pc3
  4

  6

 40
0.0
 41
0.0
 42
0.0
 43
0.0
 44
0.0
 45
0.0
 46
0.0
 47
0.0
 48
0.0
 49
0.0
140
0.0
141
0.0
142
1.0
143
1.0
 70
   688
 72
     0
 73
     0
 74
     5
  7

 75
    16
147
1.0
148
0.0
149
0.0
100
AcDbLayout
  1
Layout2
 70
     1
 71
     2
 10
0.0
 20
0.0
 11
12.0
 21
9.0
 12
0.0
 22
0.0
 32
0.0
 14
0.0
 24
0.0
 34
0.0
 15
0.0
 25
0.0
 35
0.0
146
0.0
 13
0.0
 23
0.0
 33
0.0
 16
1.0
 26
0.0
 36
0.0
 17
0.0
 27
1.0
 37
0.0
 76
     0
330
D6
  0
LAYOUT
  5
22
102
{ACAD_XDICTIONARY
360
205
102
}
102
{ACAD_REACTORS
330
1A
102
}
330
1A
100
AcDbPlotSettings
  1

  2
none_device
  4
ISO_A4_(210.00_x_297.00_MM)
  6

 40
7.5
 41
20.0
 42
7.5
 43
20.0
 44
210.0
 45
297.0
 46
11.54999923706054
 47
-13.65000009536743
 48
0.0
 49
0.0
140
0.0
141
0.0
142
1.0
143
8.704084754739808
 70
 11952
 72
     1
 73
     0
 74
     0
  7

 75
     0
147
0.1148885871608098
148
0.0
149
0.0
100
AcDbLayout
  1
Model
 70
     1
 71
     0
 10
0.0
 20
0.0
 11
12.0
 21
9.0
 12
0.0
 22
0.0
 32
0.0
 14
0.0
 24
0.0
 34
0.0
 15
0.0
 25
0.0
 35
0.0
146
0.0
 13
0.0
 23
0.0
 33
0.0
 16
1.0
 26
0.0
 36
0.0
 17
0.0
 27
1.0
 37
0.0
 76
     0
330
1F
331
EA
1001
ACAD_PSEXT
1000
None
1000
None
1000
Not applicable
1000
The layout will not be plotted unless a new plotter configuration name is selected.
1070
     0
  0
MATERIAL
  5
ED
102
{ACAD_XDICTIONARY
360
1F9
102
}
102
{ACAD_REACTORS
330
6A
102
}
330
6A
100
AcDbMaterial
  1
ByBlock
  0
MATERIAL
  5
EC
102
{ACAD_XDICTIONARY
360
1F7
102
}
102
{ACAD_REACTORS
330
6A
102
}
330
6A
100
AcDbMaterial
  1
ByLayer
  0
MATERIAL
  5
EE
102
{ACAD_XDICTIONARY
360
173
102
}
102
{ACAD_REACTORS
330
6A
102
}
330
6A
100
AcDbMaterial
  1
Global
 43
0.0007999999797903
 43
0.0
 43
0.0
 43
0.0
 43
0.0
 43
0.0007999999797903
 43
0.0
 43
0.0
 43
0.0
 43
0.0
 43
1.0
 43
0.0
 43
0.0
 43
0.0
 43
0.0
 43
1.0
 49
0.0007999999797903
 49
0.0
 49
0.0
 49
0.0
 49
0.0
 49
0.0007999999797903
 49
0.0
 49
0.0
 49
0.0
 49
0.0
 49
1.0
 49
0.0
 49
0.0
 49
0.0
 49
0.0
 49
1.0
142
0.0007999999797903
142
0.0
142
0.0
142
0.0
142
0.0
142
0.0007999999797903
142
0.0
142
0.0
142
0.0
142
0.0
142
1.0
142
0.0
142
0.0
142
0.0
142
0.0
142
1.0
144
0.0007999999797903
144
0.0
144
0.0
144
0.0
144
0.0
144
0.0007999999797903
144
0.0
144
0.0
144
0.0
144
0.0
144
1.0
144
0.0
144
0.0
144
0.0
144
0.0
144
1.0
1001
ACAD
1070
    -1
1070
     3
1070
     0
1000

1071
        0
1070
     0
  0
MLEADERSTYLE
  5
13B
102
{ACAD_XDICTIONARY
360
79D
102
}
102
{ACAD_REACTORS
330
12D
102
}
330
12D
100
AcDbMLeaderStyle
170
     2
171
     1
172
     0
 90
        2
 40
0.0
 41
0.0
173
     1
 91
-1056964608
340
14
 92
       -2
290
     1
 42
2.0
291
     1
 43
8.0
  3
Standard
 44
4.0
300

342
11
174
     1
178
     1
175
     1
176
     0
 93
-1056964608
 45
4.0
292
     0
297
     0
 46
4.0
 94
-1056964608
 47
1.0
 49
1.0
140
1.0
293
     1
141
0.0
294
     1
177
     0
142
1.0
295
     0
296
     1
143
3.75
1001
ACAD_MLEADERVER
1070
     2
  0
MLEADERSTYLE
  5
12E
102
{ACAD_XDICTIONARY
360
79B
102
}
102
{ACAD_REACTORS
330
12D
102
}
330
12D
100
AcDbMLeaderStyle
170
     2
171
     1
172
     0
 90
        2
 40
0.0
 41
0.0
173
     1
 91
-1056964608
340
14
 92
       -2
290
     1
 42
2.0
291
     1
 43
8.0
  3
Standard
 44
4.0
300

342
11
174
     1
178
     1
175
     1
176
     0
 93
-1056964608
 45
4.0
292
     0
297
     0
 46
4.0
 94
-1056964608
 47
1.0
 49
1.0
140
1.0
293
     1
141
0.0
294
     1
177
     0
142
1.0
295
     0
296
     0
143
3.75
1001
ACAD_MLEADERVER
1070
     2
  0
MLINESTYLE
  5
18
102
{ACAD_REACTORS
330
17
102
}
330
17
100
AcDbMlineStyle
  2
STANDARD
 70
     0
  3

 62
   256
 51
90.0
 52
90.0
 71
     2
 49
0.5
 62
   256
  6
BYLAYER
 49
-0.5
 62
   256
  6
BYLAYER
  0
ACDBPLACEHOLDER
  5
F
102
{ACAD_REACTORS
330
E
102
}
330
E
  0
SCALE
  5
10D
102
{ACAD_REACTORS
330
10C
102
}
330
10C
100
AcDbScale
 70
     0
300
1:1
140
1.0
141
1.0
290
     1
  0
SCALE
  5
1BE
102
{ACAD_REACTORS
330
10C
102
}
330
10C
100
AcDbScale
 70
     0
300
1:2
140
1.0
141
2.0
290
     0
  0
SCALE
  5
1BF
102
{ACAD_REACTORS
330
10C
102
}
330
10C
100
AcDbScale
 70
     0
300
1:4
140
1.0
141
4.0
290
     0
  0
SCALE
  5
1C0
102
{ACAD_REACTORS
330
10C
102
}
330
10C
100
AcDbScale
 70
     0
300
1:5
140
1.0
141
5.0
290
     0
  0
SCALE
  5
1C1
102
{ACAD_REACTORS
330
10C
102
}
330
10C
100
AcDbScale
 70
     0
300
1:8
140
1.0
141
8.0
290
     0
  0
SCALE
  5
1C2
102
{ACAD_REACTORS
330
10C
102
}
330
10C
100
AcDbScale
 70
     0
300
1:10
140
1.0
141
10.0
290
     0
  0
SCALE
  5
1C3
102
{ACAD_REACTORS
330
10C
102
}
330
10C
100
AcDbScale
 70
     0
300
1:16
140
1.0
141
16.0
290
     0
  0
SCALE
  5
1C4
102
{ACAD_REACTORS
330
10C
102
}
330
10C
100
AcDbScale
 70
     0
300
1:20
140
1.0
141
20.0
290
     0
  0
SCALE
  5
1C5
102
{ACAD_REACTORS
330
10C
102
}
330
10C
100
AcDbScale
 70
     0
300
1:30
140
1.0
141
30.0
290
     0
  0
SCALE
  5
1C6
102
{ACAD_REACTORS
330
10C
102
}
330
10C
100
AcDbScale
 70
     0
300
1:40
140
1.0
141
40.0
290
     0
  0
SCALE
  5
1C7
102
{ACAD_REACTORS
330
10C
102
}
330
10C
100
AcDbScale
 70
     0
300
1:50
140
1.0
141
50.0
290
     0
  0
SCALE
  5
1C8
102
{ACAD_REACTORS
330
10C
102
}
330
10C
100
AcDbScale
 70
     0
300
1:100
140
1.0
141
100.0
290
     0
  0
SCALE
  5
1C9
102
{ACAD_REACTORS
330
10C
102
}
330
10C
100
AcDbScale
 70
     0
300
2:1
140
2.0
141
1.0
290
     0
  0
SCALE
  5
1CA
102
{ACAD_REACTORS
330
10C
102
}
330
10C
100
AcDbScale
 70
     0
300
4:1
140
4.0
141
1.0
290
     0
  0
SCALE
  5
1CB
102
{ACAD_REACTORS
330
10C
102
}
330
10C
100
AcDbScale
 70
     0
300
8:1
140
8.0
141
1.0
290
     0
  0
SCALE
  5
1CC
102
{ACAD_REACTORS
330
10C
102
}
330
10C
100
AcDbScale
 70
     0
300
10:1
140
10.0
141
1.0
290
     0
  0
SCALE
  5
1CD
102
{ACAD_REACTORS
330
10C
102
}
330
10C
100
AcDbScale
 70
     0
300
100:1
140
100.0
141
1.0
290
     0
  0
TABLESTYLE
  5
7F
102
{ACAD_XDICTIONARY
360
162
102
}
102
{ACAD_REACTORS
330
7E
102
}
330
7E
100
AcDbTableStyle
  3
Standard
 70
     0
 71
     0
 40
1.5
 41
1.5
280
     0
281
     0
  7
Standard
140
4.5
170
     2
 62
     0
 63
     7
283
     0
274
    -2
284
     1
 64
     0
275
    -2
285
     1
 65
     0
276
    -2
286
     1
 66
     0
277
    -2
287
     1
 67
     0
278
    -2
288
     1
 68
     0
279
    -2
289
     1
 69
     0
  7
Standard
140
6.0
170
     5
 62
     0
 63
     7
283
     0
274
    -2
284
     1
 64
     0
275
    -2
285
     1
 65
     0
276
    -2
286
     1
 66
     0
277
    -2
287
     1
 67
     0
278
    -2
288
     1
 68
     0
279
    -2
289
     1
 69
     0
  7
Standard
140
4.5
170
     5
 62
     0
 63
     7
283
     0
274
    -2
284
     1
 64
     0
275
    -2
285
     1
 65
     0
276
    -2
286
     1
 66
     0
277
    -2
287
     1
 67
     0
278
    -2
288
     1
 68
     0
279
    -2
289
     1
 69
     0
  0
VISUALSTYLE
  5
F5
102
{ACAD_XDICTIONARY
360
7B1
102
}
102
{ACAD_REACTORS
330
EF
102
}
330
EF
100
AcDbVisualStyle
  2

 70
     4
 71
     0
 72
     2
 73
     1
 90
        0
 40
-0.6
 41
-30.0
 62
     5
 63
     7
 74
     1
 91
        4
 64
     7
 65
   257
 75
     1
175
     1
 42
1.0
 92
        0
 66
   257
 43
1.0
 76
     1
 77
     6
 78
     2
 67
     7
 79
     5
170
     0
171
     0
290
     0
174
     0
 93
        1
 44
0.0
173
     0
291
     0
 45
0.0
1001
ACAD
1000
AcDbSavedByObjectVersion
1070
     0
  0
VISUALSTYLE
  5
F4
102
{ACAD_XDICTIONARY
360
7AF
102
}
102
{ACAD_REACTORS
330
EF
102
}
330
EF
100
AcDbVisualStyle
  2

 70
     7
 71
     1
 72
     0
 73
     1
 90
        0
 40
-0.6
 41
-30.0
 62
     5
 63
     7
 74
     0
 91
        4
 64
     7
 65
   257
 75
     1
175
     1
 42
1.0
 92
        8
 66
     7
 43
1.0
 76
     1
 77
     6
 78
     2
 67
     7
 79
     5
170
     0
171
     0
290
     0
174
     0
 93
        1
 44
0.0
173
     0
291
     1
 45
0.0
1001
ACAD
1000
AcDbSavedByObjectVersion
1070
     0
  0
VISUALSTYLE
  5
FB
102
{ACAD_XDICTIONARY
360
7BD
102
}
102
{ACAD_REACTORS
330
EF
102
}
330
EF
100
AcDbVisualStyle
  2

 70
    12
 71
     2
 72
     2
 73
     1
 90
        0
 40
-0.6
 41
-30.0
 62
     5
 63
     7
 74
     1
 91
        4
 64
     7
 65
   257
 75
     1
175
     1
 42
1.0
 92
        8
 66
     7
 43
1.0
 76
     1
 77
     6
 78
     2
 67
     7
 79
     5
170
     0
171
     0
290
     0
174
     0
 93
        1
 44
50.0
173
     0
291
     1
 45
0.0
1001
ACAD
1000
AcDbSavedByObjectVersion
1070
     0
  0
VISUALSTYLE
  5
FF
102
{ACAD_XDICTIONARY
360
7C5
102
}
102
{ACAD_REACTORS
330
EF
102
}
330
EF
100
AcDbVisualStyle
  2

 70
    16
 71
     2
 72
     2
 73
     3
 90
        0
 40
-0.6
 41
-30.0
 62
     5
 63
     8
 74
     1
 91
        4
 64
     7
 65
   257
 75
     1
175
     1
 42
1.0
 92
        8
 66
     8
 43
1.0
 76
     1
 77
     6
 78
     2
 67
     7
 79
     5
170
     0
171
     0
290
     0
174
     0
 93
        1
 44
0.0
173
     0
291
     1
 45
0.0
1001
ACAD
1000
AcDbSavedByObjectVersion
1070
     0
  0
VISUALSTYLE
  5
F8
102
{ACAD_XDICTIONARY
360
7B7
102
}
102
{ACAD_REACTORS
330
EF
102
}
330
EF
100
AcDbVisualStyle
  2

 70
     9
 71
     3
 72
     2
 73
     1
 90
        0
 40
-0.6
 41
-30.0
 62
     5
 63
     7
 74
     2
 91
        2
 64
     7
 65
   257
 75
     1
175
     1
 42
40.0
 92
        8
 66
     7
 43
1.0
 76
     1
 77
     6
 78
     2
 67
     7
 79
     3
170
     0
171
     0
290
     0
174
     0
 93
        1
 44
0.0
173
     0
291
     0
 45
0.0
1001
ACAD
1000
AcDbSavedByObjectVersion
1070
     0
  0
VISUALSTYLE
  5
FA
102
{ACAD_XDICTIONARY
360
7BB
102
}
102
{ACAD_REACTORS
330
EF
102
}
330
EF
100
AcDbVisualStyle
  2

 70
    11
 71
     2
 72
     2
 73
     1
 90
        0
 40
-0.6
 41
-30.0
 62
     5
 63
     7
 74
     1
 91
        4
 64
     7
 65
   257
 75
     1
175
     1
 42
1.0
 92
        8
 66
     7
 43
1.0
 76
     1
 77
     6
 78
     2
 67
     7
 79
     5
170
     0
171
     0
290
     0
174
     0
 93
        1
 44
-50.0
173
     0
291
     1
 45
0.0
1001
ACAD
1000
AcDbSavedByObjectVersion
1070
     0
  0
VISUALSTYLE
  5
1E6
102
{ACAD_XDICTIONARY
360
7CB
102
}
102
{ACAD_REACTORS
330
EF
102
}
330
EF
100
AcDbVisualStyle
  2

 70
    22
 71
     2
 72
     2
 73
     0
 90
        0
 40
-0.6
 41
-30.0
 62
     5
 63
     7
 74
     1
 91
        4
 64
     7
 65
   257
 75
     1
175
     1
 42
1.0
 92
        8
 66
     7
 43
1.0
 76
     1
 77
     6
 78
     2
 67
     7
 79
     5
170
     0
171
     0
290
     0
174
     0
 93
        1
 44
0.0
173
     0
291
     1
 45
0.0
1001
ACAD
1000
AcDbSavedByObjectVersion
1070
     0
  0
VISUALSTYLE
  5
FE
102
{ACAD_XDICTIONARY
360
7C3
102
}
102
{ACAD_REACTORS
330
EF
102
}
330
EF
100
AcDbVisualStyle
  2

 70
    15
 71
     2
 72
     2
 73
     1
 90
        0
 40
-0.6
 41
-30.0
 62
     5
 63
     7
 74
     1
 91
        4
 64
     7
 65
   257
 75
     1
175
     1
 42
1.0
 92
        8
 66
     7
 43
1.0
 76
     1
 77
     6
 78
     2
 67
     7
 79
     5
170
     0
171
     0
290
     0
174
     0
 93
        1
 44
0.0
173
     0
291
     1
 45
0.0
1001
ACAD
1000
AcDbSavedByObjectVersion
1070
     0
  0
VISUALSTYLE
  5
F0
102
{ACAD_XDICTIONARY
360
7A7
102
}
102
{ACAD_REACTORS
330
EF
102
}
330
EF
100
AcDbVisualStyle
  2

 70
     0
 71
     2
 72
     1
 73
     1
 90
        2
 40
-0.6
 41
30.0
 62
     5
 63
     7
 74
     0
 91
        0
 64
     7
 65
   257
 75
     1
175
     1
 42
1.0
 92
        8
 66
     7
 43
1.0
 76
     1
 77
     6
 78
     2
 67
     7
 79
     5
170
     0
171
     0
290
     0
174
     0
 93
       13
 44
0.0
173
     0
291
     1
 45
0.0
1001
ACAD
1000
AcDbSavedByObjectVersion
1070
     0
  0
VISUALSTYLE
  5
F1
102
{ACAD_XDICTIONARY
360
7A9
102
}
102
{ACAD_REACTORS
330
EF
102
}
330
EF
100
AcDbVisualStyle
  2

 70
     1
 71
     2
 72
     1
 73
     1
 90
        2
 40
-0.6
 41
30.0
 62
     5
 63
     7
 74
     1
 91
        0
 64
     7
 65
   257
 75
     1
175
     1
 42
1.0
 92
        0
 66
   257
 43
1.0
 76
     1
 77
     6
 78
     2
 67
     7
 79
     5
170
     0
171
     0
290
     0
174
     0
 93
       13
 44
0.0
173
     0
291
     1
 45
0.0
1001
ACAD
1000
AcDbSavedByObjectVersion
1070
     0
  0
VISUALSTYLE
  5
F2
102
{ACAD_XDICTIONARY
360
7AB
102
}
102
{ACAD_REACTORS
330
EF
102
}
330
EF
100
AcDbVisualStyle
  2

 70
     2
 71
     2
 72
     2
 73
     1
 90
        2
 40
-0.6
 41
30.0
 62
     5
 63
     7
 74
     0
 91
        0
 64
     7
 65
   257
 75
     1
175
     1
 42
1.0
 92
        0
 66
     7
 43
1.0
 76
     1
 77
     6
 78
     2
 67
     7
 79
     5
170
     0
171
     0
290
     0
174
     0
 93
       13
 44
0.0
173
     0
291
     1
 45
0.0
1001
ACAD
1000
AcDbSavedByObjectVersion
1070
     0
  0
VISUALSTYLE
  5
F3
102
{ACAD_XDICTIONARY
360
7AD
102
}
102
{ACAD_REACTORS
330
EF
102
}
330
EF
100
AcDbVisualStyle
  2

 70
     3
 71
     2
 72
     2
 73
     1
 90
        2
 40
-0.6
 41
30.0
 62
     5
 63
     7
 74
     1
 91
        0
 64
     7
 65
   257
 75
     1
175
     1
 42
1.0
 92
        0
 66
   257
 43
1.0
 76
     1
 77
     6
 78
     2
 67
     7
 79
     5
170
     0
171
     0
290
     0
174
     0
 93
       13
 44
0.0
173
     0
291
     1
 45
0.0
1001
ACAD
1000
AcDbSavedByObjectVersion
1070
     0
  0
VISUALSTYLE
  5
F7
102
{ACAD_XDICTIONARY
360
7B5
102
}
102
{ACAD_REACTORS
330
EF
102
}
330
EF
100
AcDbVisualStyle
  2

 70
     6
 71
     1
 72
     2
 73
     2
 90
        0
 40
-0.6
 41
-30.0
 62
     5
 63
     7
 74
     2
 91
        2
 64
     7
 65
   257
 75
     2
175
     1
 42
40.0
 92
        0
 66
   257
 43
1.0
 76
     1
 77
     6
 78
     2
 67
     7
 79
     3
170
     0
171
     0
290
     0
174
     0
 93
        1
 44
0.0
173
     0
291
     0
 45
0.0
1001
ACAD
1000
AcDbSavedByObjectVersion
1070
     0
  0
VISUALSTYLE
  5
1E4
102
{ACAD_XDICTIONARY
360
7C7
102
}
102
{ACAD_REACTORS
330
EF
102
}
330
EF
100
AcDbVisualStyle
  2

 70
    20
 71
     2
 72
     2
 73
     0
 90
        0
 40
-0.6
 41
-30.0
 62
     5
 63
     7
 74
     1
 91
        4
 64
     7
 65
   257
 75
     1
175
     1
 42
1.0
 92
       10
 66
     7
 43
1.0
 76
     1
 77
     6
 78
     2
 67
     7
 79
     5
170
     0
171
     0
290
     0
174
     0
 93
        1
 44
0.0
173
     0
291
     1
 45
0.0
1001
ACAD
1000
AcDbSavedByObjectVersion
1070
     0
  0
VISUALSTYLE
  5
FD
102
{ACAD_XDICTIONARY
360
7C1
102
}
102
{ACAD_REACTORS
330
EF
102
}
330
EF
100
AcDbVisualStyle
  2

 70
    14
 71
     2
 72
     2
 73
     1
 90
        0
 40
-0.6
 41
-30.0
 62
     5
 63
     7
 74
     1
 91
        4
 64
     7
 65
   257
 75
     7
175
     7
 42
1.0
 92
        8
 66
     7
 43
1.0
 76
     1
 77
     6
 78
     2
 67
     7
 79
     5
170
     0
171
     0
290
     0
174
     0
 93
        1
 44
0.0
173
     0
291
     1
 45
0.0
1001
ACAD
1000
AcDbSavedByObjectVersion
1070
     0
  0
VISUALSTYLE
  5
1E5
102
{ACAD_XDICTIONARY
360
7C9
102
}
102
{ACAD_REACTORS
330
EF
102
}
330
EF
100
AcDbVisualStyle
  2

 70
    21
 71
     2
 72
     2
 73
     0
 90
        0
 40
-0.6
 41
-30.0
 62
     5
 63
     7
 74
     1
 91
        4
 64
     7
 65
   257
 75
     1
175
     1
 42
1.0
 92
        9
 66
     7
 43
1.0
 76
     1
 77
     6
 78
     2
 67
     7
 79
     5
170
     0
171
     0
290
     0
174
     0
 93
        1
 44
0.0
173
     0
291
     1
 45
0.0
1001
ACAD
1000
AcDbSavedByObjectVersion
1070
     0
  0
VISUALSTYLE
  5
F9
102
{ACAD_XDICTIONARY
360
7B9
102
}
102
{ACAD_REACTORS
330
EF
102
}
330
EF
100
AcDbVisualStyle
  2

 70
     8
 71
     2
 72
     3
 73
     0
 90
        2
 40
-0.6
 41
30.0
 62
     5
 63
     7
 74
     0
 91
        0
 64
     7
 65
   257
 75
     1
175
     1
 42
1.0
 92
        8
 66
   257
 43
1.0
 76
     1
 77
     6
 78
     2
 67
     7
 79
     3
170
     0
171
     0
290
     0
174
     0
 93
       13
 44
0.0
173
     0
291
     0
 45
0.0
1001
ACAD
1000
AcDbSavedByObjectVersion
1070
     0
  0
VISUALSTYLE
  5
1F3
102
{ACAD_XDICTIONARY
360
7D5
102
}
102
{ACAD_REACTORS
330
EF
102
}
330
EF
100
AcDbVisualStyle
  2

 70
    27
 71
     2
 72
     2
 73
     1
 90
        2
 40
-0.6
 41
30.0
 62
     5
 63
     7
 74
     0
 91
        4
 64
     7
 65
   257
 75
     1
175
     1
 42
1.0
 92
        8
 66
   257
 43
1.0
 76
     1
 77
     6
 78
     2
 67
     8
 79
     3
170
     0
171
     0
290
     0
174
     0
 93
        5
 44
0.0
173
     0
291
     0
 45
0.0
1001
ACAD
1000
AcDbSavedByObjectVersion
1070
     0
  0
VISUALSTYLE
  5
1F2
102
{ACAD_XDICTIONARY
360
7D3
102
}
102
{ACAD_REACTORS
330
EF
102
}
330
EF
100
AcDbVisualStyle
  2

 70
    26
 71
     2
 72
     2
 73
     1
 90
        2
 40
-0.6
 41
30.0
 62
     5
 63
     7
 74
     1
 91
       10
 64
     7
 65
   257
 75
     2
175
     1
 42
1.0
 92
        8
 66
   257
 43
1.0
 76
     1
 77
     6
 78
     2
 67
     7
 79
     3
170
     0
171
     0
290
     0
174
     0
 93
        5
 44
0.0
173
     0
291
     0
 45
0.0
1001
ACAD
1000
AcDbSavedByObjectVersion
1070
     0
  0
VISUALSTYLE
  5
1EF
102
{ACAD_XDICTIONARY
360
7CD
102
}
102
{ACAD_REACTORS
330
EF
102
}
330
EF
100
AcDbVisualStyle
  2

 70
    23
 71
     2
 72
     2
 73
     3
 90
        0
 40
-0.6
 41
-30.0
 62
     5
 63
     7
 74
     2
 91
        2
 64
     7
 65
     7
 75
     1
175
     1
 42
40.0
 92
        8
 66
     7
 43
1.0
 76
     1
 77
     6
 78
     2
 67
     7
 79
     3
170
     0
171
     0
290
     0
174
     0
 93
        1
 44
0.0
173
     0
291
     0
 45
0.0
1001
ACAD
1000
AcDbSavedByObjectVersion
1070
     0
  0
VISUALSTYLE
  5
1F0
102
{ACAD_XDICTIONARY
360
7CF
102
}
102
{ACAD_REACTORS
330
EF
102
}
330
EF
100
AcDbVisualStyle
  2

 70
    24
 71
     1
 72
     2
 73
     2
 90
        0
 40
-0.6
 41
-30.0
 62
     5
 63
     7
 74
     2
 91
        2
 64
     7
 65
     7
 75
     1
175
     1
 42
40.0
 92
       11
 66
     7
 43
1.0
 76
     1
 77
     6
 78
     2
 67
     7
 79
     6
170
     0
171
     0
290
     0
174
     0
 93
        1
 44
0.0
173
     0
291
     0
 45
0.0
1001
ACAD
1000
AcDbSavedByObjectVersion
1070
     0
  0
VISUALSTYLE
  5
FC
102
{ACAD_XDICTIONARY
360
7BF
102
}
102
{ACAD_REACTORS
330
EF
102
}
330
EF
100
AcDbVisualStyle
  2

 70
    13
 71
     2
 72
     2
 73
     1
 90
        0
 40
-0.6
 41
-30.0
 62
     5
 63
     7
 74
     1
 91
        4
 64
     7
 65
   257
 75
     1
175
     1
 42
1.0
 92
       12
 66
     7
 43
1.0
 76
     1
 77
     6
 78
     2
 67
     7
 79
     5
170
     0
171
     0
290
     0
174
     0
 93
        1
 44
0.0
173
     0
291
     1
 45
0.0
1001
ACAD
1000
AcDbSavedByObjectVersion
1070
     0
  0
VISUALSTYLE
  5
F6
102
{ACAD_XDICTIONARY
360
7B3
102
}
102
{ACAD_REACTORS
330
EF
102
}
330
EF
100
AcDbVisualStyle
  2

 70
     5
 71
     0
 72
     2
 73
     0
 90
        0
 40
-0.6
 41
-30.0
 62
     5
 63
     7
 74
     1
 91
        4
 64
     7
 65
   257
 75
     1
175
     1
 42
1.0
 92
        0
 66
   257
 43
1.0
 76
     1
 77
     6
 78
     2
 67
     7
 79
     3
170
     0
171
     0
290
     0
174
     0
 93
        1
 44
0.0
173
     0
291
     0
 45
0.0
1001
ACAD
1000
AcDbSavedByObjectVersion
1070
     0
  0
VISUALSTYLE
  5
1F1
102
{ACAD_XDICTIONARY
360
7D1
102
}
102
{ACAD_REACTORS
330
EF
102
}
330
EF
100
AcDbVisualStyle
  2

 70
    25
 71
     2
 72
     2
 73
     1
 90
        1
 40
0.5
 41
-30.0
 62
     5
 63
     7
 74
     1
 91
        0
 64
     7
 65
   257
 75
     1
175
     1
 42
1.0
 92
        8
 66
     7
 43
1.0
 76
     1
 77
     6
 78
     2
 67
     7
 79
     3
170
     0
171
     0
290
     0
174
     0
 93
       13
 44
0.0
173
     0
291
     0
 45
0.0
1001
ACAD
1000
AcDbSavedByObjectVersion
1070
     0
  0
DICTIONARYVAR
  5
146
102
{ACAD_REACTORS
330
5E
102
}
330
5E
100
DictionaryVariables
280
     0
  1
1:1
  0
DICTIONARYVAR
  5
145
102
{ACAD_REACTORS
330
5E
102
}
330
5E
100
DictionaryVariables
280
     0
  1
STANDARD
  0
DICTIONARYVAR
  5
84
102
{ACAD_REACTORS
330
5E
102
}
330
5E
100
DictionaryVariables
280
     0
  1
STANDARD
  0
DICTIONARYVAR
  5
5F
102
{ACAD_REACTORS
330
5E
102
}
330
5E
100
DictionaryVariables
280
     0
  1
2
  0
DICTIONARYVAR
  5
63
102
{ACAD_REACTORS
330
5E
102
}
330
5E
100
DictionaryVariables
280
     0
  1
1
  0
DICTIONARYVAR
  5
241
102
{ACAD_REACTORS
330
5E
102
}
330
5E
100
DictionaryVariables
280
     0
  1
0
  0
DICTIONARYVAR
  5
1AE
102
{ACAD_REACTORS
330
5E
102
}
330
5E
100
DictionaryVariables
280
     0
  1
0
  0
DICTIONARYVAR
  5
1AF
102
{ACAD_REACTORS
330
5E
102
}
330
5E
100
DictionaryVariables
280
     0
  1
0
  0
DICTIONARYVAR
  5
23F
102
{ACAD_REACTORS
330
5E
102
}
330
5E
100
DictionaryVariables
280
     0
  1
2
  0
DICTIONARYVAR
  5
23E
102
{ACAD_REACTORS
330
5E
102
}
330
5E
100
DictionaryVariables
280
     0
  1
1
  0
DICTIONARYVAR
  5
679
102
{ACAD_REACTORS
330
5E
102
}
330
5E
100
DictionaryVariables
280
     0
  1
80.000000
  0
DICTIONARYVAR
  5
678
102
{ACAD_REACTORS
330
5E
102
}
330
5E
100
DictionaryVariables
280
     0
  1
5.000000
  0
DICTIONARYVAR
  5
240
102
{ACAD_REACTORS
330
5E
102
}
330
5E
100
DictionaryVariables
280
     0
  1
127
  0
DICTIONARYVAR
  5
67A
102
{ACAD_REACTORS
330
5E
102
}
330
5E
100
DictionaryVariables
280
     0
  1
2
  0
DICTIONARY
  5
7A3
330
D3
100
AcDbDictionary
280
     1
281
     1
  3
ACAD_XREC_ROUNDTRIP
360
7A4
  0
DICTIONARY
  5
7A5
330
D7
100
AcDbDictionary
280
     1
281
     1
  3
ACAD_XREC_ROUNDTRIP
360
7A6
  0
DICTIONARY
  5
205
330
22
100
AcDbDictionary
280
     1
281
     1
  3
ACAD_XREC_ROUNDTRIP
360
7A1
  3
ADSK_XREC_LAYOUTTHUMBNAIL
360
206
  0
DICTIONARY
  5
1F9
330
ED
100
AcDbDictionary
280
     1
281
     1
  3
ACAD_XREC_ROUNDTRIP
360
616
  3
FBXASSET
360
1FA
  0
DICTIONARY
  5
1F7
330
EC
100
AcDbDictionary
280
     1
281
     1
  3
ACAD_XREC_ROUNDTRIP
360
615
  3
FBXASSET
360
1F8
  0
DICTIONARY
  5
173
330
EE
100
AcDbDictionary
280
     1
281
     1
  3
ACAD_XREC_ROUNDTRIP
360
617
  3
BUMPTILE
360
175
  3
DIFFUSETILE
360
174
  3
FBXASSET
360
1FB
  3
OPACITYTILE
360
176
  3
REFLECTIONTILE
360
177
  0
DICTIONARY
  5
79D
330
13B
100
AcDbDictionary
280
     1
281
     1
  3
ACAD_XREC_ROUNDTRIP
360
79E
  0
DICTIONARY
  5
79B
330
12E
100
AcDbDictionary
280
     1
281
     1
  3
ACAD_XREC_ROUNDTRIP
360
79C
  0
DICTIONARY
  5
162
330
7F
100
AcDbDictionary
280
     1
281
     1
  3
ACAD_ROUNDTRIP_2008_TABLESTYLE_CELLSTYLEMAP
360
79A
  3
ACAD_XREC_ROUNDTRIP
360
7A2
  0
DICTIONARY
  5
7B1
330
F5
100
AcDbDictionary
280
     1
281
     1
  3
ACAD_XREC_ROUNDTRIP
360
7B2
  0
DICTIONARY
  5
7AF
330
F4
100
AcDbDictionary
280
     1
281
     1
  3
ACAD_XREC_ROUNDTRIP
360
7B0
  0
DICTIONARY
  5
7BD
330
FB
100
AcDbDictionary
280
     1
281
     1
  3
ACAD_XREC_ROUNDTRIP
360
7BE
  0
DICTIONARY
  5
7C5
330
FF
100
AcDbDictionary
280
     1
281
     1
  3
ACAD_XREC_ROUNDTRIP
360
7C6
  0
DICTIONARY
  5
7B7
330
F8
100
AcDbDictionary
280
     1
281
     1
  3
ACAD_XREC_ROUNDTRIP
360
7B8
  0
DICTIONARY
  5
7BB
330
FA
100
AcDbDictionary
280
     1
281
     1
  3
ACAD_XREC_ROUNDTRIP
360
7BC
  0
DICTIONARY
  5
7CB
330
1E6
100
AcDbDictionary
280
     1
281
     1
  3
ACAD_XREC_ROUNDTRIP
360
7CC
  0
DICTIONARY
  5
7C3
330
FE
100
AcDbDictionary
280
     1
281
     1
  3
ACAD_XREC_ROUNDTRIP
360
7C4
  0
DICTIONARY
  5
7A7
330
F0
100
AcDbDictionary
280
     1
281
     1
  3
ACAD_XREC_ROUNDTRIP
360
7A8
  0
DICTIONARY
  5
7A9
330
F1
100
AcDbDictionary
280
     1
281
     1
  3
ACAD_XREC_ROUNDTRIP
360
7AA
  0
DICTIONARY
  5
7AB
330
F2
100
AcDbDictionary
280
     1
281
     1
  3
ACAD_XREC_ROUNDTRIP
360
7AC
  0
DICTIONARY
  5
7AD
330
F3
100
AcDbDictionary
280
     1
281
     1
  3
ACAD_XREC_ROUNDTRIP
360
7AE
  0
DICTIONARY
  5
7B5
330
F7
100
AcDbDictionary
280
     1
281
     1
  3
ACAD_XREC_ROUNDTRIP
360
7B6
  0
DICTIONARY
  5
7C7
330
1E4
100
AcDbDictionary
280
     1
281
     1
  3
ACAD_XREC_ROUNDTRIP
360
7C8
  0
DICTIONARY
  5
7C1
330
FD
100
AcDbDictionary
280
     1
281
     1
  3
ACAD_XREC_ROUNDTRIP
360
7C2
  0
DICTIONARY
  5
7C9
330
1E5
100
AcDbDictionary
280
     1
281
     1
  3
ACAD_XREC_ROUNDTRIP
360
7CA
  0
DICTIONARY
  5
7B9
330
F9
100
AcDbDictionary
280
     1
281
     1
  3
ACAD_XREC_ROUNDTRIP
360
7BA
  0
DICTIONARY
  5
7D5
330
1F3
100
AcDbDictionary
280
     1
281
     1
  3
ACAD_XREC_ROUNDTRIP
360
7D6
  0
DICTIONARY
  5
7D3
330
1F2
100
AcDbDictionary
280
     1
281
     1
  3
ACAD_XREC_ROUNDTRIP
360
7D4
  0
DICTIONARY
  5
7CD
330
1EF
100
AcDbDictionary
280
     1
281
     1
  3
ACAD_XREC_ROUNDTRIP
360
7CE
  0
DICTIONARY
  5
7CF
330
1F0
100
AcDbDictionary
280
     1
281
     1
  3
ACAD_XREC_ROUNDTRIP
360
7D0
  0
DICTIONARY
  5
7BF
330
FC
100
AcDbDictionary
280
     1
281
     1
  3
ACAD_XREC_ROUNDTRIP
360
7C0
  0
DICTIONARY
  5
7B3
330
F6
100
AcDbDictionary
280
     1
281
     1
  3
ACAD_XREC_ROUNDTRIP
360
7B4
  0
DICTIONARY
  5
7D1
330
1F1
100
AcDbDictionary
280
     1
281
     1
  3
ACAD_XREC_ROUNDTRIP
360
7D2
  0
XRECORD
  5
7A4
102
{ACAD_REACTORS
330
7A3
102
}
330
7A3
100
AcDbXrecord
280
     1
102
SHADEPLOT
 70
     0
102
SHADEPLOTRESLEVEL
 70
     2
102
SHADEPLOTCUSTOMDPI
 70
   300
  0
XRECORD
  5
7A6
102
{ACAD_REACTORS
330
7A5
102
}
330
7A5
100
AcDbXrecord
280
     1
102
SHADEPLOT
 70
     0
102
SHADEPLOTRESLEVEL
 70
     2
102
SHADEPLOTCUSTOMDPI
 70
   300
  0
XRECORD
  5
7A1
102
{ACAD_REACTORS
330
205
102
}
330
205
100
AcDbXrecord
280
     1
102
SHADEPLOT
 70
     0
102
SHADEPLOTRESLEVEL
 70
     2
102
SHADEPLOTCUSTOMDPI
 70
   300
  0
XRECORD
  5
206
102
{ACAD_REACTORS
330
205
102
}
330
205
100
AcDbXrecord
280
     1
310
280000000001000088000000010008000000000000880000000000000000000000010000000000009D98950000000000FFFFFF000000000000000000000000000000000000000000000000000000000000000000330000006600000099000000CC000000FF00000000330000333300006633000099330000CC330000FF3300
310
0000660000336600006666000099660000CC660000FF66000000990000339900006699000099990000CC990000FF99000000CC000033CC000066CC000099CC0000CCCC0000FFCC000000FF000033FF000066FF000099FF0000CCFF0000FFFF000000003300330033006600330099003300CC003300FF003300003333003333
310
33006633330099333300CC333300FF33330000663300336633006666330099663300CC663300FF66330000993300339933006699330099993300CC993300FF99330000CC330033CC330066CC330099CC3300CCCC3300FFCC330000FF330033FF330066FF330099FF3300CCFF3300FFFF330000006600330066006600660099
310
006600CC006600FF00660000336600333366006633660099336600CC336600FF33660000666600336666006666660099666600CC666600FF66660000996600339966006699660099996600CC996600FF99660000CC660033CC660066CC660099CC6600CCCC6600FFCC660000FF660033FF660066FF660099FF6600CCFF6600
310
FFFF660000009900330099006600990099009900CC009900FF00990000339900333399006633990099339900CC339900FF33990000669900336699006666990099669900CC669900FF66990000999900339999006699990099999900CC999900FF99990000CC990033CC990066CC990099CC9900CCCC9900FFCC990000FF99
310
0033FF990066FF990099FF9900CCFF9900FFFF99000000CC003300CC006600CC009900CC00CC00CC00FF00CC000033CC003333CC006633CC009933CC00CC33CC00FF33CC000066CC003366CC006666CC009966CC00CC66CC00FF66CC000099CC003399CC006699CC009999CC00CC99CC00FF99CC0000CCCC0033CCCC0066CC
310
CC0099CCCC00CCCCCC00FFCCCC0000FFCC0033FFCC0066FFCC0099FFCC00CCFFCC00FFFFCC000000FF003300FF006600FF009900FF00CC00FF00FF00FF000033FF003333FF006633FF009933FF00CC33FF00FF33FF000066FF003366FF006666FF009966FF00CC66FF00FF66FF000099FF003399FF006699FF009999FF00CC
310
99FF00FF99FF0000CCFF0033CCFF0066CCFF0099CCFF00CCCCFF00FFCCFF0000FFFF0033FFFF0066FFFF0099FFFF00CCFFFF00FFFFFF00000000000D0D0D001A1A1A00282828003535350043434300505050005D5D5D006B6B6B00787878008686860093939300A1A1A100AEAEAE00BBBBBB00C9C9C900D6D6D600E4E4E400
310
F1F1F100FFFFFF00000000000000000000000000000000000000000000000000000000000000000000000000000000008B608B8B608B8B608B8B608B8B3C8B8B8B608B8B608B8B608B8B608B8B3C8B8B608B8B8B608B8B608B8B608B8B3C8B8B608B8B8B608B8B608B8B608B8B3C8B8B608B8B608B8B8B608B8B608B8B3C8B
310
8B608B8B608B8B8B608B8B608B8B3C8B8B608B8B608B8B608B8B8B608B8B3C8B8B608B8B608B8B608B8B8B608B8B3C8B8B608B8B608B8B608B8B608B8B8B3C8B8B608B8B608B8B608B8B608B8B8B3C8B8B608B8B608B8B608B8B608B8B3C8B8B8B608B8B608B8B608B8B608B8B3C8B8B8B608B8B608B8B608B8B608B8B3C8B
310
8B608B8B8B608B8B608B8B608B8B3C8B8B608B8B8B608B8B608B8B608B8B3C8B8B608B8B608B8B8B608B8B608B8B3C8B8B608B608B8B608B8B608B8B608B8B3C8B8B8B608B8B608B8B608B8B608B8B3C8B8B608B8B8B608B8B608B8B608B8B3C8B8B608B8B8B608B8B608B8B608B8B3C8B8B608B8B608B8B8B608B8B608B8B
310
3C8B8B608B8B608B8B8B608B8B608B8B3C8B8B608B8B608B8B608B8B8B608B8B3C8B8B608B8B608B8B608B8B8B608B8B3C8B8B608B8B608B8B608B8B608B8B8B3C8B8B608B8B608B8B608B8B608B8B8B3C8B8B608B8B608B8B608B8B608B8B3C8B8B8B608B8B608B8B608B8B608B8B3C8B8B8B608B8B608B8B608B8B608B8B
310
3C8B8B608B8B8B608B8B608B8B608B8B3C8B8B608B8B8B608B8B608B8B608B8B3C8B8B608B8B608B8B8B608B8B608B8B3C8B8B60606060606060606060606060603C6060606060606060606060606060603C6060606060606060606060606060603C6060606060606060606060606060603C60606060606060606060606060
310
60603C6060606060606060606060606060603C6060606060606060606060606060603C6060606060606060606060606060603C6060606060606060606060606060603C6060606060606060606060606060603C60606060606060606060606060603C6060606060606060606060606060603C60606060606060606060606060
310
60603C6060606060606060606060606060603C6060606060606060606060606060603C6060606060606060606060606060603C6060608B608B8B608B8B608B8B608B8B3C8B8B8B608B8B608B8B608B8B608B8B3C8B8B608B8B8B608B8B608B8B608B8B3C8B8B608B8B8B608B8B608B8B608B8B3C8B8B608B8B608B8B8B608B
310
8B608B8B3C8B8B608B8B608B8B8B608B8B608B8B3C8B8B608B8B608B8B608B8B8B608B8B3C8B8B608B8B608B8B608B8B8B608B8B3C8B8B608B8B608B8B608B8B608B8B8B3C8B8B608B8B608B8B608B8B608B8B8B3C8B8B608B8B608B8B608B8B608B8B3C8B8B8B608B8B608B8B608B8B608B8B3C8B8B8B608B8B608B8B608B
310
8B608B8B3C8B8B608B8B8B608B8B608B8B608B8B3C8B8B608B8B8B608B8B608B8B608B8B3C8B8B608B8B608B8B8B608B8B608B8B3C8B8B608B608B8B608B8B608B8B608B8B3C8B8B8B608B8B608B8B608B8B608B8B3C8B8B608B8B8B608B8B608B8B608B8B3C8B8B608B8B8B608B8B608B8B608B8B3C8B8B608B8B608B8B8B
310
608B8B608B8B3C8B8B608B8B608B8B8B608B8B608B8B3C8B8B608B8B608B8B608B8B8B608B8B3C8B8B608B8B608B8B608B8B8B608B8B3C8B8B608B8B608B8B608B8B608B8B8B3C8B8B608B8B608B8B608B8B608B8B8B3C8B8B608B8B608B8B608B8B608B8B3C8B8B8B608B8B608B8B608B8B608B8B3C8B8B8B608B8B608B8B
310
608B8B608B8B3C8B8B608B8B8B608B8B608B8B608B8B3C8B8B608B8B8B608B8B608B8B608B8B3C8B8B608B8B608B8B8B608B8B608B8B3C8B8B60606060606060606060606060603C6060606060606060606060606060603C6060606060606060606060606060603C6060606060606060606060606060603C60606060606060
310
60606060606060603C6060606060606060606060606060603C6060606060606060606060606060603C6060606060606060606060606060603C6060606060606060606060606060603C6060606060606060606060606060603C60606060606060606060606060603C6060606060606060606060606060603C60606060606060
310
60606060606060603C6060606060606060606060606060603C6060606060606060606060606060603C6060606060606060606060606060603C6060608B608B8B608B8B608B8B608B8B3C8B8B8B608B8B608B8B608B8B608B8B3C8B8B608B8B8B608B8B608B8B608B8B3C8B8B608B8B8B608B8B608B8B608B8B3C8B8B608B8B
310
608B8B8B608B8B608B8B3C8B8B608B8B608B8B8B608B8B608B8B3C8B8B608B8B608B8B608B8B8B608B8B3C8B8B608B8B608B8B608B8B8B608B8B3C8B8B608B8B608B8B608B8B608B8B8B3C8B8B608B8B608B8B608B8B608B8B8B3C8B8B608B8B608B8B608B8B608B8B3C8B8B8B608B8B608B8B608B8B608B8B3C8B8B8B608B
310
8B608B8B608B8B608B8B3C8B8B608B8B8B608B8B608B8B608B8B3C8B8B608B8B8B608B8B608B8B608B8B3C8B8B608B8B608B8B8B608B8B608B8B3C8B8B608B608B8B608B8B608B8B608B8B3C8B8B8B608B8B608B8B608B8B608B8B3C8B8B608B8B8B608B8B608B8B608B8B3C8B8B608B8B8B608B8B608B8B608B8B3C8B8B60
310
8B8B608B8B8B608B8B608B8B3C8B8B608B8B608B8B8B608B8B608B8B3C8B8B608B8B608B8B608B8B8B608B8B3C8B8B608B8B608B8B608B8B8B608B8B3C8B8B608B8B608B8B608B8B608B8B8B3C8B8B608B8B608B8B608B8B608B8B8B3C8B8B608B8B608B8B608B8B608B8B3C8B8B8B608B8B608B8B608B8B608B8B3C8B8B8B
310
608B8B608B8B608B8B608B8B3C8B8B608B8B8B608B8B608B8B608B8B3C8B8B608B8B8B608B8B608B8B608B8B3C8B8B608B8B608B8B8B608B8B608B8B3C8B8B608B608B8B608B8B608B8B608B8B3C8B8B8B608B8B608B8B608B8B608B8B3C8B8B608B8B8B608B8B608B8B608B8B3C8B8B608B8B8B608B8B608B8B608B8B3C8B
310
8B608B8B608B8B8B608B8B608B8B3C8B8B608B8B608B8B8B608B8B608B8B3C8B8B608B8B608B8B608B8B8B608B8B3C8B8B608B8B608B8B608B8B8B608B8B3C8B8B608B8B608B8B608B8B608B8B8B3C8B8B608B8B608B8B608B8B608B8B8B3C8B8B608B8B608B8B608B8B608B8B3C8B8B8B608B8B608B8B608B8B608B8B3C8B
310
8B8B608B8B608B8B608B8B608B8B3C8B8B608B8B8B608B8B608B8B608B8B3C8B8B608B8B8B608B8B608B8B608B8B3C8B8B608B8B608B8B8B608B8B608B8B3C8B8B603C3C3C3C3C3C3C3C3C3C3C3C3C3C3C3C3C3C3C3C3C3C3C3C3C3C3C3C3C3C3C3C3C3C3C3C3C3C3C3C3C3C3C3C3C3C3C3C3C3C3C3C3C3C3C3C3C3C3C3C3C
310
3C3C3C3C3C3C3C3C3C3C3C3C3C3C3C3C3C3C3C3C3C3C3C3C3C3C3C3C3C3C3C3C3C3C3C3C3C3C3C3C3C3C3C3C3C3C3C3C3C3C3C3C3C3C3C3C3C3C3C3C3C3C3C3C3C3C3C3C3C3C3C3C3C3C3C3C3C3C3C3C3C3C3C3C3C3C3C3C3C3C3C3C3C3C3C3C3C3C3C3C3C3C3C3C3C3C3C3C3C3C3C3C3C3C3C3C3C3C3C3C3C3C3C3C3C3C3C
310
3C3C3C3C3C3C3C3C3C3C3C3C3C3C3C3C3C3C3C3C3C3C3C3C3C3C3C3C3C3C3C3C3C3C3C3C3C3C3C3C3C3C3C3C3C3C3C3C3C3C3C3C3C3C3C3C3C3C3C3C3C3C3C3C3C3C3C3C8B608B8B608B8B608B8B608B8B3C8B8B8B608B8B608B8B608B8B608B8B3C8B8B608B8B8B608B8B608B8B608B8B3C8B8B608B8B8B608B8B608B8B60
310
8B8B3C8B8B608B8B608B8B8B608B8B608B8B3C8B8B608B8B608B8B8B608B8B608B8B3C8B8B608B8B608B8B608B8B8B608B8B3C8B8B608B8B608B8B608B8B8B608B8B3C8B8B608B8B608B8B608B8B608B8B8B3C8B8B608B8B608B8B608B8B608B8B8B3C8B8B608B8B608B8B608B8B608B8B3C8B8B8B608B8B608B8B608B8B60
310
8B8B3C8B8B8B608B8B608B8B608B8B608B8B3C8B8B608B8B8B608B8B608B8B608B8B3C8B8B608B8B8B608B8B608B8B608B8B3C8B8B608B8B608B8B8B608B8B608B8B3C8B8B608B608B8B608B8B608B8B608B8B3C8B8B8B608B8B608B8B608B8B608B8B3C8B8B608B8B8B608B8B608B8B608B8B3C8B8B608B8B8B608B8B608B
310
8B608B8B3C8B8B608B8B608B8B8B608B8B608B8B3C8B8B608B8B608B8B8B608B8B608B8B3C8B8B608B8B608B8B608B8B8B608B8B3C8B8B608B8B608B8B608B8B8B608B8B3C8B8B608B8B608B8B608B8B608B8B8B3C8B8B608B8B608B8B608B8B608B8B8B3C8B8B608B8B608B8B608B8B608B8B3C8B8B8B608B8B608B8B608B
310
8B608B8B3C8B8B8B608B8B608B8B608B8B608B8B3C8B8B608B8B8B608B8B608B8B608B8B3C8B8B608B8B8B608B8B608B8B608B8B3C8B8B608B8B608B8B8B608B8B608B8B3C8B8B60606060606060606060606060603C6060606060606060606060606060603C6060606060606060606060606060603C606060606060606060
310
6060606060603C6060606060606060606060606060603C6060606060606060606060606060603C6060606060606060606060606060603C6060606060606060606060606060603C6060606060606060606060606060603C6060606060606060606060606060603C60606060606060606060606060603C606060606060606060
310
6060606060603C6060606060606060606060606060603C6060606060606060606060606060603C6060606060606060606060606060603C6060606060606060606060606060603C6060608B608B8B608B8B608B8B608B8B3C8B8B8B608B8B608B8B608B8B608B8B3C8B8B608B8B8B608B8B608B8B608B8B3C8B8B608B8B8B60
310
8B8B608B8B608B8B3C8B8B608B8B608B8B8B608B8B608B8B3C8B8B608B8B608B8B8B608B8B608B8B3C8B8B608B8B608B8B608B8B8B608B8B3C8B8B608B8B608B8B608B8B8B608B8B3C8B8B608B8B608B8B608B8B608B8B8B3C8B8B608B8B608B8B608B8B608B8B8B3C8B8B608B8B608B8B608B8B608B8B3C8B8B8B608B8B60
310
8B8B608B8B608B8B3C8B8B8B608B8B608B8B608B8B608B8B3C8B8B608B8B8B608B8B608B8B608B8B3C8B8B608B8B8B608B8B608B8B608B8B3C8B8B608B8B608B8B8B608B8B608B8B3C8B8B608B608B8B608B8B608B8B608B8B3C8B8B8B608B8B608B8B608B8B608B8B3C8B8B608B8B8B608B8B608B8B608B8B3C8B8B608B8B
310
8B608B8B608B8B608B8B3C8B8B608B8B608B8B8B608B8B608B8B3C8B8B608B8B608B8B8B608B8B608B8B3C8B8B608B8B608B8B608B8B8B608B8B3C8B8B608B8B608B8B608B8B8B608B8B3C8B8B608B8B608B8B608B8B608B8B8B3C8B8B608B8B608B8B608B8B608B8B8B3C8B8B608B8B608B8B608B8B608B8B3C8B8B8B608B
310
8B608B8B608B8B608B8B3C8B8B8B608B8B608B8B608B8B608B8B3C8B8B608B8B8B608B8B608B8B608B8B3C8B8B608B8B8B608B8B608B8B608B8B3C8B8B608B8B608B8B8B608B8B608B8B3C8B8B60606060606060606060606060603C6060606060606060606060606060603C6060606060606060606060606060603C606060
310
6060606060606060606060603C6060606060606060606060606060603C6060606060606060606060606060603C6060606060606060606060606060603C6060606060606060606060606060603C6060606060606060606060606060603C6060606060606060606060606060603C60606060606060606060606060603C606060
310
6060606060606060606060603C6060606060606060606060606060603C6060606060606060606060606060603C6060606060606060606060606060603C6060606060606060606060606060603C6060608B608B8B608B8B608B8B608B8B3C8B8B8B608B8B608B8B608B8B608B8B3C8B8B608B8B8B608B8B608B8B608B8B3C8B
310
8B608B8B8B608B8B608B8B608B8B3C8B8B608B8B608B8B8B608B8B608B8B3C8B8B608B8B608B8B8B608B8B608B8B3C8B8B608B8B608B8B608B8B8B608B8B3C8B8B608B8B608B8B608B8B8B608B8B3C8B8B608B8B608B8B608B8B608B8B8B3C8B8B608B8B608B8B608B8B608B8B8B3C8B8B608B8B608B8B608B8B608B8B3C8B
310
8B8B608B8B608B8B608B8B608B8B3C8B8B8B608B8B608B8B608B8B608B8B3C8B8B608B8B8B608B8B608B8B608B8B3C8B8B608B8B8B608B8B608B8B608B8B3C8B8B608B8B608B8B8B608B8B608B8B3C8B8B608B608B8B608B8B608B8B608B8B3C8B8B8B608B8B608B8B608B8B608B8B3C8B8B608B8B8B608B8B608B8B608B8B
310
3C8B8B608B8B8B608B8B608B8B608B8B3C8B8B608B8B608B8B8B608B8B608B8B3C8B8B608B8B608B8B8B608B8B608B8B3C8B8B608B8B608B8B608B8B8B608B8B3C8B8B608B8B608B8B608B8B8B608B8B3C8B8B608B8B608B8B608B8B608B8B8B3C8B8B608B8B608B8B608B8B608B8B8B3C8B8B608B8B608B8B608B8B608B8B
310
3C8B8B8B608B8B608B8B608B8B608B8B3C8B8B8B608B8B608B8B608B8B608B8B3C8B8B608B8B8B608B8B608B8B608B8B3C8B8B608B8B8B608B8B608B8B608B8B3C8B8B608B8B608B8B8B608B8B608B8B3C8B8B60606060606060606060606060603C6060606060606060606060606060603C60606060606060606060606060
310
60603C6060606060606060606060606060603C6060606060606060606060606060603C6060606060606060606060606060603C6060606060606060606060606060603C6060606060606060606060606060603C6060606060606060606060606060603C6060606060606060606060606060603C606060606060606060606060
310
60603C6060606060606060606060606060603C6060606060606060606060606060603C6060606060606060606060606060603C6060606060606060606060606060603C6060606060606060606060606060603C6060608B608B8B608B8B608B8B608B8B3C8B8B8B608B8B608B8B608B8B608B8B3C8B8B608B8B8B608B8B608B
310
8B608B8B3C8B8B608B8B8B608B8B608B8B608B8B3C8B8B608B8B608B8B8B608B8B608B8B3C8B8B608B8B608B8B8B608B8B608B8B3C8B8B608B8B608B8B608B8B8B608B8B3C8B8B608B8B608B8B608B8B8B608B8B3C8B8B608B8B608B8B608B8B608B8B8B3C8B8B608B8B608B8B608B8B608B8B8B3C8B8B608B8B608B8B608B
310
8B608B8B3C8B8B8B608B8B608B8B608B8B608B8B3C8B8B8B608B8B608B8B608B8B608B8B3C8B8B608B8B8B608B8B608B8B608B8B3C8B8B608B8B8B608B8B608B8B608B8B3C8B8B608B8B608B8B8B608B8B608B8B3C8B8B608B608B8B608B8B608B8B608B8B3C8B8B8B608B8B608B8B608B8B608B8B3C8B8B608B8B8B608B8B
310
608B8B608B8B3C8B8B608B8B8B608B8B608B8B608B8B3C8B8B608B8B608B8B8B608B8B608B8B3C8B8B608B8B608B8B8B608B8B608B8B3C8B8B608B8B608B8B608B8B8B608B8B3C8B8B608B8B608B8B608B8B8B608B8B3C8B8B608B8B608B8B608B8B608B8B8B3C8B8B608B8B608B8B608B8B608B8B8B3C8B8B608B8B608B8B
310
608B8B608B8B3C8B8B8B608B8B608B8B608B8B608B8B3C8B8B8B608B8B608B8B608B8B608B8B3C8B8B608B8B8B608B8B608B8B608B8B3C8B8B608B8B8B608B8B608B8B608B8B3C8B8B608B8B608B8B8B608B8B608B8B3C8B8B60606060606060606060606060603C6060606060606060606060606060603C60606060606060
310
60606060606060603C6060606060606060606060606060603C6060606060606060606060606060603C6060606060606060606060606060603C6060606060606060606060606060603C6060606060606060606060606060603C6060606060606060606060606060603C6060606060606060606060606060603C606060606060
310
60606060606060603C6060606060606060606060606060603C6060606060606060606060606060603C6060606060606060606060606060603C6060606060606060606060606060603C6060606060606060606060606060603C6060608B608B8B608B8B608B8B608B8B3C8B8B8B608B8B608B8B608B8B608B8B3C8B8B608B8B
310
8B608B8B608B8B608B8B3C8B8B608B8B8B608B8B608B8B608B8B3C8B8B608B8B608B8B8B608B8B608B8B3C8B8B608B8B608B8B8B608B8B608B8B3C8B8B608B8B608B8B608B8B8B608B8B3C8B8B608B8B608B8B608B8B8B608B8B3C8B8B608B8B608B8B608B8B608B8B8B3C8B8B608B8B608B8B608B8B608B8B8B3C8B8B608B
310
8B608B8B608B8B608B8B3C8B8B8B608B8B608B8B608B8B608B8B3C8B8B8B608B8B608B8B608B8B608B8B3C8B8B608B8B8B608B8B608B8B608B8B3C8B8B608B8B8B608B8B608B8B608B8B3C8B8B608B8B608B8B8B608B8B608B8B3C8B8B608B608B8B608B8B608B8B608B8B3C8B8B8B608B8B608B8B608B8B608B8B3C8B8B60
310
8B8B8B608B8B608B8B608B8B3C8B8B608B8B8B608B8B608B8B608B8B3C8B8B608B8B608B8B8B608B8B608B8B3C8B8B608B8B608B8B8B608B8B608B8B3C8B8B608B8B608B8B608B8B8B608B8B3C8B8B608B8B608B8B608B8B8B608B8B3C8B8B608B8B608B8B608B8B608B8B8B3C8B8B608B8B608B8B608B8B608B8B8B3C8B8B
310
608B8B608B8B608B8B608B8B3C8B8B8B608B8B608B8B608B8B608B8B3C8B8B8B608B8B608B8B608B8B608B8B3C8B8B608B8B8B608B8B608B8B608B8B3C8B8B608B8B8B608B8B608B8B608B8B3C8B8B608B8B608B8B8B608B8B608B8B3C8B8B603C3C3C3C3C3C3C3C3C3C3C3C3C3C3C3C3C3C3C3C3C3C3C3C3C3C3C3C3C3C3C
310
3C3C3C3C3C3C3C3C3C3C3C3C3C3C3C3C3C3C3C3C3C3C3C3C3C3C3C3C3C3C3C3C3C3C3C3C3C3C3C3C3C3C3C3C3C3C3C3C3C3C3C3C3C3C3C3C3C3C3C3C3C3C3C3C3C3C3C3C3C3C3C3C3C3C3C3C3C3C3C3C3C3C3C3C3C3C3C3C3C3C3C3C3C3C3C3C3C3C3C3C3C3C3C3C3C3C3C3C3C3C3C3C3C3C3C3C3C3C3C3C3C3C3C3C3C3C3C
310
3C3C3C3C3C3C3C3C3C3C3C3C3C3C3C3C3C3C3C3C3C3C3C3C3C3C3C3C3C3C3C3C3C3C3C3C3C3C3C3C3C3C3C3C3C3C3C3C3C3C3C3C3C3C3C3C3C3C3C3C3C3C3C3C3C3C3C3C3C3C3C3C3C3C3C3C3C3C3C3C3C3C3C3C3C3C3C3C3C3C3C3C3C3C3C3C3C3C8B608B8B608B8B608B8B608B8B3C8B8B8B608B8B608B8B608B8B608B8B
310
3C8B8B608B8B8B608B8B608B8B608B8B3C8B8B608B8B8B608B8B608B8B608B8B3C8B8B608B8B608B8B8B608B8B608B8B3C8B8B608B8B608B8B8B608B8B608B8B3C8B8B608B8B608B8B608B8B8B608B8B3C8B8B608B8B608B8B608B8B8B608B8B3C8B8B608B8B608B8B608B8B608B8B8B3C8B8B608B8B608B8B608B8B608B8B
310
8B3C8B8B608B8B608B8B608B8B608B8B3C8B8B8B608B8B608B8B608B8B608B8B3C8B8B8B608B8B608B8B608B8B608B8B3C8B8B608B8B8B608B8B608B8B608B8B3C8B8B608B8B8B608B8B608B8B608B8B3C8B8B608B8B608B8B8B608B8B608B8B3C8B8B608B608B8B608B8B608B8B608B8B3C8B8B8B608B8B608B8B608B8B60
310
8B8B3C8B8B608B8B8B608B8B608B8B608B8B3C8B8B608B8B8B608B8B608B8B608B8B3C8B8B608B8B608B8B8B608B8B608B8B3C8B8B608B8B608B8B8B608B8B608B8B3C8B8B608B8B608B8B608B8B8B608B8B3C8B8B608B8B608B8B608B8B8B608B8B3C8B8B608B8B608B8B608B8B608B8B8B3C8B8B608B8B608B8B608B8B60
310
8B8B8B3C8B8B608B8B608B8B608B8B608B8B3C8B8B8B608B8B608B8B608B8B608B8B3C8B8B8B608B8B608B8B608B8B608B8B3C8B8B608B8B8B608B8B608B8B608B8B3C8B8B608B8B8B608B8B608B8B608B8B3C8B8B608B8B608B8B8B608B8B608B8B3C8B8B608B608B8B608B8B608B8B608B8B3C8B8B8B608B8B608B8B608B
310
8B608B8B3C8B8B608B8B8B608B8B608B8B608B8B3C8B8B608B8B8B608B8B608B8B608B8B3C8B8B608B8B608B8B8B608B8B608B8B3C8B8B608B8B608B8B8B608B8B608B8B3C8B8B608B8B608B8B608B8B8B608B8B3C8B8B608B8B608B8B608B8B8B608B8B3C8B8B608B8B608B8B608B8B608B8B8B3C8B8B608B8B608B8B608B
310
8B608B8B8B3C8B8B608B8B608B8B608B8B608B8B3C8B8B8B608B8B608B8B608B8B608B8B3C8B8B8B608B8B608B8B608B8B608B8B3C8B8B608B8B8B608B8B608B8B608B8B3C8B8B608B8B8B608B8B608B8B608B8B3C8B8B608B8B608B8B8B608B8B608B8B3C8B8B60606060606060606060606060603C606060606060606060
310
6060606060603C6060606060606060606060606060603C6060606060606060606060606060603C6060606060606060606060606060603C6060606060606060606060606060603C6060606060606060606060606060603C6060606060606060606060606060603C6060606060606060606060606060603C6060606060606060
310
606060606060603C60606060606060606060606060603C6060606060606060606060606060603C6060606060606060606060606060603C6060606060606060606060606060603C6060606060606060606060606060603C6060606060606060606060606060603C6060608B608B8B608B8B608B8B608B8B3C8B8B8B608B8B60
310
8B8B608B8B608B8B3C8B8B608B8B8B608B8B608B8B608B8B3C8B8B608B8B8B608B8B608B8B608B8B3C8B8B608B8B608B8B8B608B8B608B8B3C8B8B608B8B608B8B8B608B8B608B8B3C8B8B608B8B608B8B608B8B8B608B8B3C8B8B608B8B608B8B608B8B8B608B8B3C8B8B608B8B608B8B608B8B608B8B8B3C8B8B608B8B60
310
8B8B608B8B608B8B8B3C8B8B608B8B608B8B608B8B608B8B3C8B8B8B608B8B608B8B608B8B608B8B3C8B8B8B608B8B608B8B608B8B608B8B3C8B8B608B8B8B608B8B608B8B608B8B3C8B8B608B8B8B608B8B608B8B608B8B3C8B8B608B8B608B8B8B608B8B608B8B3C8B8B608B608B8B608B8B608B8B608B8B3C8B8B8B608B
310
8B608B8B608B8B608B8B3C8B8B608B8B8B608B8B608B8B608B8B3C8B8B608B8B8B608B8B608B8B608B8B3C8B8B608B8B608B8B8B608B8B608B8B3C8B8B608B8B608B8B8B608B8B608B8B3C8B8B608B8B608B8B608B8B8B608B8B3C8B8B608B8B608B8B608B8B8B608B8B3C8B8B608B8B608B8B608B8B608B8B8B3C8B8B608B
310
8B608B8B608B8B608B8B8B3C8B8B608B8B608B8B608B8B608B8B3C8B8B8B608B8B608B8B608B8B608B8B3C8B8B8B608B8B608B8B608B8B608B8B3C8B8B608B8B8B608B8B608B8B608B8B3C8B8B608B8B8B608B8B608B8B608B8B3C8B8B608B8B608B8B8B608B8B608B8B3C8B8B60606060606060606060606060603C606060
310
6060606060606060606060603C6060606060606060606060606060603C6060606060606060606060606060603C6060606060606060606060606060603C6060606060606060606060606060603C6060606060606060606060606060603C6060606060606060606060606060603C6060606060606060606060606060603C6060
310
606060606060606060606060603C60606060606060606060606060603C6060606060606060606060606060603C6060606060606060606060606060603C6060606060606060606060606060603C6060606060606060606060606060603C6060606060606060606060606060603C6060608B608B8B608B8B608B8B608B8B3C8B
310
8B8B608B8B608B8B608B8B608B8B3C8B8B608B8B8B608B8B608B8B608B8B3C8B8B608B8B8B608B8B608B8B608B8B3C8B8B608B8B608B8B8B608B8B608B8B3C8B8B608B8B608B8B8B608B8B608B8B3C8B8B608B8B608B8B608B8B8B608B8B3C8B8B608B8B608B8B608B8B8B608B8B3C8B8B608B8B608B8B608B8B608B8B8B3C
310
8B8B608B8B608B8B608B8B608B8B8B3C8B8B608B8B608B8B608B8B608B8B3C8B8B8B608B8B608B8B608B8B608B8B3C8B8B8B608B8B608B8B608B8B608B8B3C8B8B608B8B8B608B8B608B8B608B8B3C8B8B608B8B8B608B8B608B8B608B8B3C8B8B608B8B608B8B8B608B8B608B8B3C8B8B608B608B8B608B8B608B8B608B8B
310
3C8B8B8B608B8B608B8B608B8B608B8B3C8B8B608B8B8B608B8B608B8B608B8B3C8B8B608B8B8B608B8B608B8B608B8B3C8B8B608B8B608B8B8B608B8B608B8B3C8B8B608B8B608B8B8B608B8B608B8B3C8B8B608B8B608B8B608B8B8B608B8B3C8B8B608B8B608B8B608B8B8B608B8B3C8B8B608B8B608B8B608B8B608B8B
310
8B3C8B8B608B8B608B8B608B8B608B8B8B3C8B8B608B8B608B8B608B8B608B8B3C8B8B8B608B8B608B8B608B8B608B8B3C8B8B8B608B8B608B8B608B8B608B8B3C8B8B608B8B8B608B8B608B8B608B8B3C8B8B608B8B8B608B8B608B8B608B8B3C8B8B608B8B608B8B8B608B8B608B8B3C8B8B606060606060606060606060
310
60603C6060606060606060606060606060603C6060606060606060606060606060603C6060606060606060606060606060603C6060606060606060606060606060603C6060606060606060606060606060603C6060606060606060606060606060603C6060606060606060606060606060603C606060606060606060606060
310
6060603C6060606060606060606060606060603C60606060606060606060606060603C6060606060606060606060606060603C6060606060606060606060606060603C6060606060606060606060606060603C6060606060606060606060606060603C6060606060606060606060606060603C6060608B608B8B608B8B608B
310
8B608B8B3C8B8B8B608B8B608B8B608B8B608B8B3C8B8B608B8B8B608B8B608B8B608B8B3C8B8B608B8B8B608B8B608B8B608B8B3C8B8B608B8B608B8B8B608B8B608B8B3C8B8B608B8B608B8B8B608B8B608B8B3C8B8B608B8B608B8B608B8B8B608B8B3C8B8B608B8B608B8B608B8B8B608B8B3C8B8B608B8B608B8B608B
310
8B608B8B8B3C8B8B608B8B608B8B608B8B608B8B8B3C8B8B608B8B608B8B608B8B608B8B3C8B8B8B608B8B608B8B608B8B608B8B3C8B8B8B608B8B608B8B608B8B608B8B3C8B8B608B8B8B608B8B608B8B608B8B3C8B8B608B8B8B608B8B608B8B608B8B3C8B8B608B8B608B8B8B608B8B608B8B3C8B8B608B608B8B608B8B
310
608B8B608B8B3C8B8B8B608B8B608B8B608B8B608B8B3C8B8B608B8B8B608B8B608B8B608B8B3C8B8B608B8B8B608B8B608B8B608B8B3C8B8B608B8B608B8B8B608B8B608B8B3C8B8B608B8B608B8B8B608B8B608B8B3C8B8B608B8B608B8B608B8B8B608B8B3C8B8B608B8B608B8B608B8B8B608B8B3C8B8B608B8B608B8B
310
608B8B608B8B8B3C8B8B608B8B608B8B608B8B608B8B8B3C8B8B608B8B608B8B608B8B608B8B3C8B8B8B608B8B608B8B608B8B608B8B3C8B8B8B608B8B608B8B608B8B608B8B3C8B8B608B8B8B608B8B608B8B608B8B3C8B8B608B8B8B608B8B608B8B608B8B3C8B8B608B8B608B8B8B608B8B608B8B3C8B8B606060606060
310
60606060606060603C6060606060606060606060606060603C6060606060606060606060606060603C6060606060606060606060606060603C6060606060606060606060606060603C6060606060606060606060606060603C6060606060606060606060606060603C6060606060606060606060606060603C606060606060
310
6060606060606060603C6060606060606060606060606060603C60606060606060606060606060603C6060606060606060606060606060603C6060606060606060606060606060603C6060606060606060606060606060603C6060606060606060606060606060603C6060606060606060606060606060603C6060608B608B
310
8B608B8B608B8B608B8B3C8B8B8B608B8B608B8B608B8B608B8B3C8B8B608B8B8B608B8B608B8B608B8B3C8B8B608B8B8B608B8B608B8B608B8B3C8B8B608B8B608B8B8B608B8B608B8B3C8B8B608B8B608B8B8B608B8B608B8B3C8B8B608B8B608B8B608B8B8B608B8B3C8B8B608B8B608B8B608B8B8B608B8B3C8B8B608B
310
8B608B8B608B8B608B8B8B3C8B8B608B8B608B8B608B8B608B8B8B3C8B8B608B8B608B8B608B8B608B8B3C8B8B8B608B8B608B8B608B8B608B8B3C8B8B8B608B8B608B8B608B8B608B8B3C8B8B608B8B8B608B8B608B8B608B8B3C8B8B608B8B8B608B8B608B8B608B8B3C8B8B608B8B608B8B8B608B8B608B8B3C8B8B608B
310
608B8B608B8B608B8B608B8B3C8B8B8B608B8B608B8B608B8B608B8B3C8B8B608B8B8B608B8B608B8B608B8B3C8B8B608B8B8B608B8B608B8B608B8B3C8B8B608B8B608B8B8B608B8B608B8B3C8B8B608B8B608B8B8B608B8B608B8B3C8B8B608B8B608B8B608B8B8B608B8B3C8B8B608B8B608B8B608B8B8B608B8B3C8B8B
310
608B8B608B8B608B8B608B8B8B3C8B8B608B8B608B8B608B8B608B8B8B3C8B8B608B8B608B8B608B8B608B8B3C8B8B8B608B8B608B8B608B8B608B8B3C8B8B8B608B8B608B8B608B8B608B8B3C8B8B608B8B8B608B8B608B8B608B8B3C8B8B608B8B8B608B8B608B8B608B8B3C8B8B608B8B608B8B8B608B8B608B8B3C8B8B
310
603C3C3C3C3C3C3C3C3C3C3C3C3C3C3C3C3C3C3C3C3C3C3C3C3C3C3C3C3C3C3C3C3C3C3C3C3C3C3C3C3C3C3C3C3C3C3C3C3C3C3C3C3C3C3C3C3C3C3C3C3C3C3C3C3C3C3C3C3C3C3C3C3C3C3C3C3C3C3C3C3C3C3C3C3C3C3C3C3C3C3C3C3C3C3C3C3C3C3C3C3C3C3C3C3C3C3C3C3C3C3C3C3C3C3C3C3C3C3C3C3C3C3C3C3C3C
310
3C3C3C3C3C3C3C3C3C3C3C3C3C3C3C3C3C3C3C3C3C3C3C3C3C3C3C3C3C3C3C3C3C3C3C3C3C3C3C3C3C3C3C3C3C3C3C3C3C3C3C3C3C3C3C3C3C3C3C3C3C3C3C3C3C3C3C3C3C3C3C3C3C3C3C3C3C3C3C3C3C3C3C3C3C3C3C3C3C3C3C3C3C3C3C3C3C3C3C3C3C3C3C3C3C3C3C3C3C3C3C3C3C3C3C3C3C3C3C3C3C3C3C3C3C3C3C
310
3C3C3C8B608B8B608B8B608B8B608B8B3C8B8B8B608B8B608B8B608B8B608B8B3C8B8B608B8B8B608B8B608B8B608B8B3C8B8B608B8B8B608B8B608B8B608B8B3C8B8B608B8B608B8B8B608B8B608B8B3C8B8B608B8B608B8B8B608B8B608B8B3C8B8B608B8B608B8B608B8B8B608B8B3C8B8B608B8B608B8B608B8B8B608B
310
8B3C8B8B608B8B608B8B608B8B608B8B8B3C8B8B608B8B608B8B608B8B608B8B8B3C8B8B608B8B608B8B608B8B608B8B3C8B8B8B608B8B608B8B608B8B608B8B3C8B8B8B608B8B608B8B608B8B608B8B3C8B8B608B8B8B608B8B608B8B608B8B3C8B8B608B8B8B608B8B608B8B608B8B3C8B8B608B8B608B8B8B608B8B608B
310
8B3C8B8B608B608B8B608B8B608B8B608B8B3C8B8B8B608B8B608B8B608B8B608B8B3C8B8B608B8B8B608B8B608B8B608B8B3C8B8B608B8B8B608B8B608B8B608B8B3C8B8B608B8B608B8B8B608B8B608B8B3C8B8B608B8B608B8B8B608B8B608B8B3C8B8B608B8B608B8B608B8B8B608B8B3C8B8B608B8B608B8B608B8B8B
310
608B8B3C8B8B608B8B608B8B608B8B608B8B8B3C8B8B608B8B608B8B608B8B608B8B8B3C8B8B608B8B608B8B608B8B608B8B3C8B8B8B608B8B608B8B608B8B608B8B3C8B8B8B608B8B608B8B608B8B608B8B3C8B8B608B8B8B608B8B608B8B608B8B3C8B8B608B8B8B608B8B608B8B608B8B3C8B8B608B8B608B8B8B608B8B
310
608B8B3C8B8B60606060606060606060606060603C6060606060606060606060606060603C6060606060606060606060606060603C6060606060606060606060606060603C6060606060606060606060606060603C6060606060606060606060606060603C6060606060606060606060606060603C60606060606060606060
310
60606060603C6060606060606060606060606060603C6060606060606060606060606060603C60606060606060606060606060603C6060606060606060606060606060603C6060606060606060606060606060603C6060606060606060606060606060603C6060606060606060606060606060603C60606060606060606060
310
60606060603C6060608B608B8B608B8B608B8B608B8B3C8B8B8B608B8B608B8B608B8B608B8B3C8B8B608B8B8B608B8B608B8B608B8B3C8B8B608B8B8B608B8B608B8B608B8B3C8B8B608B8B608B8B8B608B8B608B8B3C8B8B608B8B608B8B8B608B8B608B8B3C8B8B608B8B608B8B608B8B8B608B8B3C8B8B608B8B608B8B
310
608B8B8B608B8B3C8B8B608B8B608B8B608B8B608B8B8B3C8B8B608B8B608B8B608B8B608B8B8B3C8B8B608B8B608B8B608B8B608B8B3C8B8B8B608B8B608B8B608B8B608B8B3C8B8B8B608B8B608B8B608B8B608B8B3C8B8B608B8B8B608B8B608B8B608B8B3C8B8B608B8B8B608B8B608B8B608B8B3C8B8B608B8B608B8B
310
8B608B8B608B8B3C8B8B608B608B8B608B8B608B8B608B8B3C8B8B8B608B8B608B8B608B8B608B8B3C8B8B608B8B8B608B8B608B8B608B8B3C8B8B608B8B8B608B8B608B8B608B8B3C8B8B608B8B608B8B8B608B8B608B8B3C8B8B608B8B608B8B8B608B8B608B8B3C8B8B608B8B608B8B608B8B8B608B8B3C8B8B608B8B60
310
8B8B608B8B8B608B8B3C8B8B608B8B608B8B608B8B608B8B8B3C8B8B608B8B608B8B608B8B608B8B8B3C8B8B608B8B608B8B608B8B608B8B3C8B8B8B608B8B608B8B608B8B608B8B3C8B8B8B608B8B608B8B608B8B608B8B3C8B8B608B8B8B608B8B608B8B608B8B3C8B8B608B8B8B608B8B608B8B608B8B3C8B8B608B8B60
310
8B8B8B608B8B608B8B3C8B8B608B608B8B608B8B608B8B608B8B3C8B8B8B608B8B608B8B608B8B608B8B3C8B8B608B8B8B608B8B608B8B608B8B3C8B8B608B8B8B608B8B608B8B608B8B3C8B8B608B8B608B8B8B608B8B608B8B3C8B8B608B8B608B8B8B608B8B608B8B3C8B8B608B8B608B8B608B8B8B608B8B3C8B8B608B
310
8B608B8B608B8B8B608B8B3C8B8B608B8B608B8B608B8B608B8B8B3C8B8B608B8B608B8B608B8B608B8B8B3C8B8B608B8B608B8B608B8B608B8B3C8B8B8B608B8B608B8B608B8B608B8B3C8B8B8B608B8B608B8B608B8B608B8B3C8B8B608B8B8B608B8B608B8B608B8B3C8B8B608B8B8B608B8B608B8B608B8B3C8B8B608B
310
8B608B8B8B608B8B608B8B3C8B8B60606060606060606060606060603C6060606060606060606060606060603C6060606060606060606060606060603C6060606060606060606060606060603C6060606060606060606060606060603C6060606060606060606060606060603C6060606060606060606060606060603C6060
310
606060606060606060606060603C6060606060606060606060606060603C6060606060606060606060606060603C60606060606060606060606060603C6060606060606060606060606060603C6060606060606060606060606060603C6060606060606060606060606060603C6060606060606060606060606060603C6060
310
606060606060606060606060603C6060608B608B8B608B8B608B8B608B8B3C8B8B8B608B8B608B8B608B8B608B8B3C8B8B608B8B8B608B8B608B8B608B8B3C8B8B608B8B8B608B8B608B8B608B8B3C8B8B608B8B608B8B8B608B8B608B8B3C8B8B608B8B608B8B8B608B8B608B8B3C8B8B608B8B608B8B608B8B8B608B8B3C
310
8B8B608B8B608B8B608B8B8B608B8B3C8B8B608B8B608B8B608B8B608B8B8B3C8B8B608B8B608B8B608B8B608B8B8B3C8B8B608B8B608B8B608B8B608B8B3C8B8B8B608B8B608B8B608B8B608B8B3C8B8B8B608B8B608B8B608B8B608B8B3C8B8B608B8B8B608B8B608B8B608B8B3C8B8B608B8B8B608B8B608B8B608B8B3C
310
8B8B608B8B608B8B8B608B8B608B8B3C8B8B608B608B8B608B8B608B8B608B8B3C8B8B8B608B8B608B8B608B8B608B8B3C8B8B608B8B8B608B8B608B8B608B8B3C8B8B608B8B8B608B8B608B8B608B8B3C8B8B608B8B608B8B8B608B8B608B8B3C8B8B608B8B608B8B8B608B8B608B8B3C8B8B608B8B608B8B608B8B8B608B
310
8B3C8B8B608B8B608B8B608B8B8B608B8B3C8B8B608B8B608B8B608B8B608B8B8B3C8B8B608B8B608B8B608B8B608B8B8B3C8B8B608B8B608B8B608B8B608B8B3C8B8B8B608B8B608B8B608B8B608B8B3C8B8B8B608B8B608B8B608B8B608B8B3C8B8B608B8B8B608B8B608B8B608B8B3C8B8B608B8B8B608B8B608B8B608B
310
8B3C8B8B608B8B608B8B8B608B8B608B8B3C8B8B60606060606060606060606060603C6060606060606060606060606060603C6060606060606060606060606060603C6060606060606060606060606060603C6060606060606060606060606060603C6060606060606060606060606060603C606060606060606060606060
310
6060603C6060606060606060606060606060603C6060606060606060606060606060603C6060606060606060606060606060603C60606060606060606060606060603C6060606060606060606060606060603C6060606060606060606060606060603C6060606060606060606060606060603C606060606060606060606060
310
6060603C6060606060606060606060606060603C6060608B608B8B608B8B608B8B608B8B3C8B8B8B608B8B608B8B608B8B608B8B3C8B8B608B8B8B608B8B608B8B608B8B3C8B8B608B8B8B608B8B608B8B608B8B3C8B8B608B8B608B8B8B608B8B608B8B3C8B8B608B8B608B8B8B608B8B608B8B3C8B8B608B8B608B8B608B
310
8B8B608B8B3C8B8B608B8B608B8B608B8B8B608B8B3C8B8B608B8B608B8B608B8B608B8B8B3C8B8B608B8B608B8B608B8B608B8B8B3C8B8B608B8B608B8B608B8B608B8B3C8B8B8B608B8B608B8B608B8B608B8B3C8B8B8B608B8B608B8B608B8B608B8B3C8B8B608B8B8B608B8B608B8B608B8B3C8B8B608B8B8B608B8B60
310
8B8B608B8B3C8B8B608B8B608B8B8B608B8B608B8B3C8B8B608B608B8B608B8B608B8B608B8B3C8B8B8B608B8B608B8B608B8B608B8B3C8B8B608B8B8B608B8B608B8B608B8B3C8B8B608B8B8B608B8B608B8B608B8B3C8B8B608B8B608B8B8B608B8B608B8B3C8B8B608B8B608B8B8B608B8B608B8B3C8B8B608B8B608B8B
310
608B8B8B608B8B3C8B8B608B8B608B8B608B8B8B608B8B3C8B8B608B8B608B8B608B8B608B8B8B3C8B8B608B8B608B8B608B8B608B8B8B3C8B8B608B8B608B8B608B8B608B8B3C8B8B8B608B8B608B8B608B8B608B8B3C8B8B8B608B8B608B8B608B8B608B8B3C8B8B608B8B8B608B8B608B8B608B8B3C8B8B608B8B8B608B
310
8B608B8B608B8B3C8B8B608B8B608B8B8B608B8B608B8B3C8B8B60606060606060606060606060603C6060606060606060606060606060603C6060606060606060606060606060603C6060606060606060606060606060603C6060606060606060606060606060603C6060606060606060606060606060603C606060606060
310
6060606060606060603C6060606060606060606060606060603C6060606060606060606060606060603C6060606060606060606060606060603C60606060606060606060606060603C6060606060606060606060606060603C6060606060606060606060606060603C6060606060606060606060606060603C606060606060
310
6060606060606060603C6060606060606060606060606060603C6060608B608B8B608B8B608B8B608B8B3C8B8B8B608B8B608B8B608B8B608B8B3C8B8B608B8B8B608B8B608B8B608B8B3C8B8B608B8B8B608B8B608B8B608B8B3C8B8B608B8B608B8B8B608B8B608B8B3C8B8B608B8B608B8B8B608B8B608B8B3C8B8B608B
310
8B608B8B608B8B8B608B8B3C8B8B608B8B608B8B608B8B8B608B8B3C8B8B608B8B608B8B608B8B608B8B8B3C8B8B608B8B608B8B608B8B608B8B8B3C8B8B608B8B608B8B608B8B608B8B3C8B8B8B608B8B608B8B608B8B608B8B3C8B8B8B608B8B608B8B608B8B608B8B3C8B8B608B8B8B608B8B608B8B608B8B3C8B8B608B
310
8B8B608B8B608B8B608B8B3C8B8B608B8B608B8B8B608B8B608B8B3C8B8B608B608B8B608B8B608B8B608B8B3C8B8B8B608B8B608B8B608B8B608B8B3C8B8B608B8B8B608B8B608B8B608B8B3C8B8B608B8B8B608B8B608B8B608B8B3C8B8B608B8B608B8B8B608B8B608B8B3C8B8B608B8B608B8B8B608B8B608B8B3C8B8B
310
608B8B608B8B608B8B8B608B8B3C8B8B608B8B608B8B608B8B8B608B8B3C8B8B608B8B608B8B608B8B608B8B8B3C8B8B608B8B608B8B608B8B608B8B8B3C8B8B608B8B608B8B608B8B608B8B3C8B8B8B608B8B608B8B608B8B608B8B3C8B8B8B608B8B608B8B608B8B608B8B3C8B8B608B8B8B608B8B608B8B608B8B3C8B8B
310
608B8B8B608B8B608B8B608B8B3C8B8B608B8B608B8B8B608B8B608B8B3C8B8B603C3C3C3C3C3C3C3C3C3C3C3C3C3C3C3C3C3C3C3C3C3C3C3C3C3C3C3C3C3C3C3C3C3C3C3C3C3C3C3C3C3C3C3C3C3C3C3C3C3C3C3C3C3C3C3C3C3C3C3C3C3C3C3C3C3C3C3C3C3C3C3C3C3C3C3C3C3C3C3C3C3C3C3C3C3C3C3C3C3C3C3C3C3C
310
3C3C3C3C3C3C3C3C3C3C3C3C3C3C3C3C3C3C3C3C3C3C3C3C3C3C3C3C3C3C3C3C3C3C3C3C3C3C3C3C3C3C3C3C3C3C3C3C3C3C3C3C3C3C3C3C3C3C3C3C3C3C3C3C3C3C3C3C3C3C3C3C3C3C3C3C3C3C3C3C3C3C3C3C3C3C3C3C3C3C3C3C3C3C3C3C3C3C3C3C3C3C3C3C3C3C3C3C3C3C3C3C3C3C3C3C3C3C3C3C3C3C3C3C3C3C3C
310
3C3C3C3C3C3C3C3C3C3C3C3C3C3C3C3C3C3C3C3C3C3C3C3C3C3C3C3C3C3C3C3C3C3C3C8B608B8B608B8B608B8B608B8B3C8B8B8B608B8B608B8B608B8B608B8B3C8B8B608B8B8B608B8B608B8B608B8B3C8B8B608B8B8B608B8B608B8B608B8B3C8B8B608B8B608B8B8B608B8B608B8B3C8B8B608B8B608B8B8B608B8B608B
310
8B3C8B8B608B8B608B8B608B8B8B608B8B3C8B8B608B8B608B8B608B8B8B608B8B3C8B8B608B8B608B8B608B8B608B8B8B3C8B8B608B8B608B8B608B8B608B8B8B3C8B8B608B8B608B8B608B8B608B8B3C8B8B8B608B8B608B8B608B8B608B8B3C8B8B8B608B8B608B8B608B8B608B8B3C8B8B608B8B8B608B8B608B8B608B
310
8B3C8B8B608B8B8B608B8B608B8B608B8B3C8B8B608B8B608B8B8B608B8B608B8B3C8B8B608B608B8B608B8B608B8B608B8B3C8B8B8B608B8B608B8B608B8B608B8B3C8B8B608B8B8B608B8B608B8B608B8B3C8B8B608B8B8B608B8B608B8B608B8B3C8B8B608B8B608B8B8B608B8B608B8B3C8B8B608B8B608B8B8B608B8B
310
608B8B3C8B8B608B8B608B8B608B8B8B608B8B3C8B8B608B8B608B8B608B8B8B608B8B3C8B8B608B8B608B8B608B8B608B8B8B3C8B8B608B8B608B8B608B8B608B8B8B3C8B8B608B8B608B8B608B8B608B8B3C8B8B8B608B8B608B8B608B8B608B8B3C8B8B8B608B8B608B8B608B8B608B8B3C8B8B608B8B8B608B8B608B8B
310
608B8B3C8B8B608B8B8B608B8B608B8B608B8B3C8B8B608B8B608B8B8B608B8B608B8B3C8B8B60606060606060606060606060603C6060606060606060606060606060603C6060606060606060606060606060603C6060606060606060606060606060603C6060606060606060606060606060603C60606060606060606060
310
60606060603C6060606060606060606060606060603C6060606060606060606060606060603C6060606060606060606060606060603C6060606060606060606060606060603C60606060606060606060606060603C6060606060606060606060606060603C6060606060606060606060606060603C60606060606060606060
310
60606060603C6060606060606060606060606060603C6060606060606060606060606060603C6060608B608B8B608B8B608B8B608B8B3C8B8B8B608B8B608B8B608B8B608B8B3C8B8B608B8B8B608B8B608B8B608B8B3C8B8B608B8B8B608B8B608B8B608B8B3C8B8B608B8B608B8B8B608B8B608B8B3C8B8B608B8B608B8B
310
8B608B8B608B8B3C8B8B608B8B608B8B608B8B8B608B8B3C8B8B608B8B608B8B608B8B8B608B8B3C8B8B608B8B608B8B608B8B608B8B8B3C8B8B608B8B608B8B608B8B608B8B8B3C8B8B608B8B608B8B608B8B608B8B3C8B8B8B608B8B608B8B608B8B608B8B3C8B8B8B608B8B608B8B608B8B608B8B3C8B8B608B8B8B608B
310
8B608B8B608B8B3C8B8B608B8B8B608B8B608B8B608B8B3C8B8B608B8B608B8B8B608B8B608B8B3C8B8B608B608B8B608B8B608B8B608B8B3C8B8B8B608B8B608B8B608B8B608B8B3C8B8B608B8B8B608B8B608B8B608B8B3C8B8B608B8B8B608B8B608B8B608B8B3C8B8B608B8B608B8B8B608B8B608B8B3C8B8B608B8B60
310
8B8B8B608B8B608B8B3C8B8B608B8B608B8B608B8B8B608B8B3C8B8B608B8B608B8B608B8B8B608B8B3C8B8B608B8B608B8B608B8B608B8B8B3C8B8B608B8B608B8B608B8B608B8B8B3C8B8B608B8B608B8B608B8B608B8B3C8B8B8B608B8B608B8B608B8B608B8B3C8B8B8B608B8B608B8B608B8B608B8B3C8B8B608B8B8B
310
608B8B608B8B608B8B3C8B8B608B8B8B608B8B608B8B608B8B3C8B8B608B8B608B8B8B608B8B608B8B3C8B8B60606060606060606060606060603C6060606060606060606060606060603C6060606060606060606060606060603C6060606060606060606060606060603C6060606060606060606060606060603C60606060
310
60606060606060606060603C6060606060606060606060606060603C6060606060606060606060606060603C6060606060606060606060606060603C6060606060606060606060606060603C60606060606060606060606060603C6060606060606060606060606060603C6060606060606060606060606060603C60606060
310
60606060606060606060603C6060606060606060606060606060603C6060606060606060606060606060603C6060608B608B8B608B8B608B8B608B8B3C8B8B8B608B8B608B8B608B8B608B8B3C8B8B608B8B8B608B8B608B8B608B8B3C8B8B608B8B8B608B8B608B8B608B8B3C8B8B608B8B608B8B8B608B8B608B8B3C8B8B
310
608B8B608B8B8B608B8B608B8B3C8B8B608B8B608B8B608B8B8B608B8B3C8B8B608B8B608B8B608B8B8B608B8B3C8B8B608B8B608B8B608B8B608B8B8B3C8B8B608B8B608B8B608B8B608B8B8B3C8B8B608B8B608B8B608B8B608B8B3C8B8B8B608B8B608B8B608B8B608B8B3C8B8B8B608B8B608B8B608B8B608B8B3C8B8B
310
608B8B8B608B8B608B8B608B8B3C8B8B608B8B8B608B8B608B8B608B8B3C8B8B608B8B608B8B8B608B8B608B8B3C8B8B608B608B8B608B8B608B8B608B8B3C8B8B8B608B8B608B8B608B8B608B8B3C8B8B608B8B8B608B8B608B8B608B8B3C8B8B608B8B8B608B8B608B8B608B8B3C8B8B608B8B608B8B8B608B8B608B8B3C
310
8B8B608B8B608B8B8B608B8B608B8B3C8B8B608B8B608B8B608B8B8B608B8B3C8B8B608B8B608B8B608B8B8B608B8B3C8B8B608B8B608B8B608B8B608B8B8B3C8B8B608B8B608B8B608B8B608B8B8B3C8B8B608B8B608B8B608B8B608B8B3C8B8B8B608B8B608B8B608B8B608B8B3C8B8B8B608B8B608B8B608B8B608B8B3C
310
8B8B608B8B8B608B8B608B8B608B8B3C8B8B608B8B8B608B8B608B8B608B8B3C8B8B608B8B608B8B8B608B8B608B8B3C8B8B608B608B8B608B8B608B8B608B8B3C8B8B8B608B8B608B8B608B8B608B8B3C8B8B608B8B8B608B8B608B8B608B8B3C8B8B608B8B8B608B8B608B8B608B8B3C8B8B608B8B608B8B8B608B8B608B
310
8B3C8B8B608B8B608B8B8B608B8B608B8B3C8B8B608B8B608B8B608B8B8B608B8B3C8B8B608B8B608B8B608B8B8B608B8B3C8B8B608B8B608B8B608B8B608B8B8B3C8B8B608B8B608B8B608B8B608B8B8B3C8B8B608B8B608B8B608B8B608B8B3C8B8B8B608B8B608B8B608B8B608B8B3C8B8B8B608B8B608B8B608B8B608B
310
8B3C8B8B608B8B8B608B8B608B8B608B8B3C8B8B608B8B8B608B8B608B8B608B8B3C8B8B608B8B608B8B8B608B8B608B8B3C8B8B60606060606060606060606060603C6060606060606060606060606060603C6060606060606060606060606060603C6060606060606060606060606060603C606060606060606060606060
310
6060603C6060606060606060606060606060603C6060606060606060606060606060603C6060606060606060606060606060603C6060606060606060606060606060603C6060606060606060606060606060603C60606060606060606060606060603C6060606060606060606060606060603C606060606060606060606060
310
6060603C6060606060606060606060606060603C6060606060606060606060606060603C6060606060606060606060606060603C6060608B608B8B608B8B608B8B608B8B3C8B8B8B608B8B608B8B608B8B608B8B3C8B8B608B8B8B608B8B608B8B608B8B3C8B8B608B8B8B608B8B608B8B608B8B3C8B8B608B8B608B8B8B60
310
8B8B608B8B3C8B8B608B8B608B8B8B608B8B608B8B3C8B8B608B8B608B8B608B8B8B608B8B3C8B8B608B8B608B8B608B8B8B608B8B3C8B8B608B8B608B8B608B8B608B8B8B3C8B8B608B8B608B8B608B8B608B8B8B3C8B8B608B8B608B8B608B8B608B8B3C8B8B8B608B8B608B8B608B8B608B8B3C8B8B8B608B8B608B8B60
310
8B8B608B8B3C8B8B608B8B8B608B8B608B8B608B8B3C8B8B608B8B8B608B8B608B8B608B8B3C8B8B608B8B608B8B8B608B8B608B8B3C8B8B608B608B8B608B8B608B8B608B8B3C8B8B8B608B8B608B8B608B8B608B8B3C8B8B608B8B8B608B8B608B8B608B8B3C8B8B608B8B8B608B8B608B8B608B8B3C8B8B608B8B608B8B
310
8B608B8B608B8B3C8B8B608B8B608B8B8B608B8B608B8B3C8B8B608B8B608B8B608B8B8B608B8B3C8B8B608B8B608B8B608B8B8B608B8B3C8B8B608B8B608B8B608B8B608B8B8B3C8B8B608B8B608B8B608B8B608B8B8B3C8B8B608B8B608B8B608B8B608B8B3C8B8B8B608B8B608B8B608B8B608B8B3C8B8B8B608B8B608B
310
8B608B8B608B8B3C8B8B608B8B8B608B8B608B8B608B8B3C8B8B608B8B8B608B8B608B8B608B8B3C8B8B608B8B608B8B8B608B8B608B8B3C8B8B60606060606060606060606060603C6060606060606060606060606060603C6060606060606060606060606060603C6060606060606060606060606060603C606060606060
310
6060606060606060603C6060606060606060606060606060603C6060606060606060606060606060603C6060606060606060606060606060603C6060606060606060606060606060603C6060606060606060606060606060603C60606060606060606060606060603C6060606060606060606060606060603C606060606060
310
6060606060606060603C6060606060606060606060606060603C6060606060606060606060606060603C6060606060606060606060606060603C6060608B608B8B608B8B608B8B608B8B3C8B8B8B608B8B608B8B608B8B608B8B3C8B8B608B8B8B608B8B608B8B608B8B3C8B8B608B8B8B608B8B608B8B608B8B3C8B8B608B
310
8B608B8B8B608B8B608B8B3C8B8B608B8B608B8B8B608B8B608B8B3C8B8B608B8B608B8B608B8B8B608B8B3C8B8B608B8B608B8B608B8B8B608B8B3C8B8B608B8B608B8B608B8B608B8B8B3C8B8B608B8B608B8B608B8B608B8B8B3C8B8B608B8B608B8B608B8B608B8B3C8B8B8B608B8B608B8B608B8B608B8B3C8B8B8B60
310
8B8B608B8B608B8B608B8B3C8B8B608B8B8B608B8B608B8B608B8B3C8B8B608B8B8B608B8B608B8B608B8B3C8B8B608B8B608B8B8B608B8B608B8B3C8B8B608B608B8B608B8B608B8B608B8B3C8B8B8B608B8B608B8B608B8B608B8B3C8B8B608B8B8B608B8B608B8B608B8B3C8B8B608B8B8B608B8B608B8B608B8B3C8B8B
310
608B8B608B8B8B608B8B608B8B3C8B8B608B8B608B8B8B608B8B608B8B3C8B8B608B8B608B8B608B8B8B608B8B3C8B8B608B8B608B8B608B8B8B608B8B3C8B8B608B8B608B8B608B8B608B8B8B3C8B8B608B8B608B8B608B8B608B8B8B3C8B8B608B8B608B8B608B8B608B8B3C8B8B8B608B8B608B8B608B8B608B8B3C8B8B
310
8B608B8B608B8B608B8B608B8B3C8B8B608B8B8B608B8B608B8B608B8B3C8B8B608B8B8B608B8B608B8B608B8B3C8B8B608B8B608B8B8B608B8B608B8B3C8B8B603C3C3C3C3C3C3C3C3C3C3C3C3C3C3C3C3C3C3C3C3C3C3C3C3C3C3C3C3C3C3C3C3C3C3C3C3C3C3C3C3C3C3C3C3C3C3C3C3C3C3C3C3C3C3C3C3C3C3C3C3C3C
310
3C3C3C3C3C3C3C3C3C3C3C3C3C3C3C3C3C3C3C3C3C3C3C3C3C3C3C3C3C3C3C3C3C3C3C3C3C3C3C3C3C3C3C3C3C3C3C3C3C3C3C3C3C3C3C3C3C3C3C3C3C3C3C3C3C3C3C3C3C3C3C3C3C3C3C3C3C3C3C3C3C3C3C3C3C3C3C3C3C3C3C3C3C3C3C3C3C3C3C3C3C3C3C3C3C3C3C3C3C3C3C3C3C3C3C3C3C3C3C3C3C3C3C3C3C3C3C
310
3C3C3C3C3C3C3C3C3C3C3C3C3C3C3C3C3C3C3C3C3C3C3C3C3C3C3C3C3C3C3C3C3C3C3C3C3C3C3C3C3C3C3C3C3C3C3C3C3C3C3C3C3C3C3C3C3C3C3C3C3C3C3C3C3C3C3C8B608B8B608B8B608B8B608B8B3C8B8B8B608B8B608B8B608B8B608B8B3C8B8B608B8B8B608B8B608B8B608B8B3C8B8B608B8B8B608B8B608B8B608B
310
8B3C8B8B608B8B608B8B8B608B8B608B8B3C8B8B608B8B608B8B8B608B8B608B8B3C8B8B608B8B608B8B608B8B8B608B8B3C8B8B608B8B608B8B608B8B8B608B8B3C8B8B608B8B608B8B608B8B608B8B8B3C8B8B608B8B608B8B608B8B608B8B8B3C8B8B608B8B608B8B608B8B608B8B3C8B8B8B608B8B608B8B608B8B608B
310
8B3C8B8B8B608B8B608B8B608B8B608B8B3C8B8B608B8B8B608B8B608B8B608B8B3C8B8B608B8B8B608B8B608B8B608B8B3C8B8B608B8B608B8B8B608B8B608B8B3C8B8B608B608B8B608B8B608B8B608B8B3C8B8B8B608B8B608B8B608B8B608B8B3C8B8B608B8B8B608B8B608B8B608B8B3C8B8B608B8B8B608B8B608B8B
310
608B8B3C8B8B608B8B608B8B8B608B8B608B8B3C8B8B608B8B608B8B8B608B8B608B8B3C8B8B608B8B608B8B608B8B8B608B8B3C8B8B608B8B608B8B608B8B8B608B8B3C8B8B608B8B608B8B608B8B608B8B8B3C8B8B608B8B608B8B608B8B608B8B8B3C8B8B608B8B608B8B608B8B608B8B3C8B8B8B608B8B608B8B608B8B
310
608B8B3C8B8B8B608B8B608B8B608B8B608B8B3C8B8B608B8B8B608B8B608B8B608B8B3C8B8B608B8B8B608B8B608B8B608B8B3C8B8B608B8B608B8B8B608B8B608B8B3C8B8B60606060606060606060606060603C6060606060606060606060606060603C6060606060606060606060606060603C60606060606060606060
310
60606060603C6060606060606060606060606060603C6060606060606060606060606060603C6060606060606060606060606060603C6060606060606060606060606060603C6060606060606060606060606060603C6060606060606060606060606060603C60606060606060606060606060603C60606060606060606060
310
60606060603C6060606060606060606060606060603C6060606060606060606060606060603C6060606060606060606060606060603C6060606060606060606060606060603C6060608B608B8B608B8B608B8B608B8B3C8B8B8B608B8B608B8B608B8B608B8B3C8B8B608B8B8B608B8B608B8B608B8B3C8B8B608B8B8B608B
310
8B608B8B608B8B3C8B8B608B8B608B8B8B608B8B608B8B3C8B8B608B8B608B8B8B608B8B608B8B3C8B8B608B8B608B8B608B8B8B608B8B3C8B8B608B8B608B8B608B8B8B608B8B3C8B8B608B8B608B8B608B8B608B8B8B3C8B8B608B8B608B8B608B8B608B8B8B3C8B8B608B8B608B8B608B8B608B8B3C8B8B8B608B8B608B
310
8B608B8B608B8B3C8B8B8B608B8B608B8B608B8B608B8B3C8B8B608B8B8B608B8B608B8B608B8B3C8B8B608B8B8B608B8B608B8B608B8B3C8B8B608B8B608B8B8B608B8B608B8B3C8B8B608B608B8B608B8B608B8B608B8B3C8B8B8B608B8B608B8B608B8B608B8B3C8B8B608B8B8B608B8B608B8B608B8B3C8B8B608B8B8B
310
608B8B608B8B608B8B3C8B8B608B8B608B8B8B608B8B608B8B3C8B8B608B8B608B8B8B608B8B608B8B3C8B8B608B8B608B8B608B8B8B608B8B3C8B8B608B8B608B8B608B8B8B608B8B3C8B8B608B8B608B8B608B8B608B8B8B3C8B8B608B8B608B8B608B8B608B8B8B3C8B8B608B8B608B8B608B8B608B8B3C8B8B8B608B8B
310
608B8B608B8B608B8B3C8B8B8B608B8B608B8B608B8B608B8B3C8B8B608B8B8B608B8B608B8B608B8B3C8B8B608B8B8B608B8B608B8B608B8B3C8B8B608B8B608B8B8B608B8B608B8B3C8B8B60606060606060606060606060603C6060606060606060606060606060603C6060606060606060606060606060603C60606060
310
60606060606060606060603C6060606060606060606060606060603C6060606060606060606060606060603C6060606060606060606060606060603C6060606060606060606060606060603C6060606060606060606060606060603C6060606060606060606060606060603C60606060606060606060606060603C60606060
310
60606060606060606060603C6060606060606060606060606060603C6060606060606060606060606060603C6060606060606060606060606060603C6060606060606060606060606060603C6060608B608B8B608B8B608B8B608B8B3C8B8B8B608B8B608B8B608B8B608B8B3C8B8B608B8B8B608B8B608B8B608B8B3C8B8B
310
608B8B8B608B8B608B8B608B8B3C8B8B608B8B608B8B8B608B8B608B8B3C8B8B608B8B608B8B8B608B8B608B8B3C8B8B608B8B608B8B608B8B8B608B8B3C8B8B608B8B608B8B608B8B8B608B8B3C8B8B608B8B608B8B608B8B608B8B8B3C8B8B608B8B608B8B608B8B608B8B8B3C8B8B608B8B608B8B608B8B608B8B3C8B8B
310
8B608B8B608B8B608B8B608B8B3C8B8B8B608B8B608B8B608B8B608B8B3C8B8B608B8B8B608B8B608B8B608B8B3C8B8B608B8B8B608B8B608B8B608B8B3C8B8B608B8B608B8B8B608B8B608B8B3C8B8B608B608B8B608B8B608B8B608B8B3C8B8B8B608B8B608B8B608B8B608B8B3C8B8B608B8B8B608B8B608B8B608B8B3C
310
8B8B608B8B8B608B8B608B8B608B8B3C8B8B608B8B608B8B8B608B8B608B8B3C8B8B608B8B608B8B8B608B8B608B8B3C8B8B608B8B608B8B608B8B8B608B8B3C8B8B608B8B608B8B608B8B8B608B8B3C8B8B608B8B608B8B608B8B608B8B8B3C8B8B608B8B608B8B608B8B608B8B8B3C8B8B608B8B608B8B608B8B608B8B3C
310
8B8B8B608B8B608B8B608B8B608B8B3C8B8B8B608B8B608B8B608B8B608B8B3C8B8B608B8B8B608B8B608B8B608B8B3C8B8B608B8B8B608B8B608B8B608B8B3C8B8B608B8B608B8B8B608B8B608B8B3C8B8B60606060606060606060606060603C6060606060606060606060606060603C6060606060606060606060606060
310
603C6060606060606060606060606060603C6060606060606060606060606060603C6060606060606060606060606060603C6060606060606060606060606060603C6060606060606060606060606060603C6060606060606060606060606060603C6060606060606060606060606060603C60606060606060606060606060
310
603C6060606060606060606060606060603C6060606060606060606060606060603C6060606060606060606060606060603C6060606060606060606060606060603C6060606060606060606060606060603C6060608B608B8B608B8B608B8B608B8B3C8B8B8B608B8B608B8B608B8B608B8B3C8B8B608B8B8B608B8B608B8B
310
608B8B3C8B8B608B8B8B608B8B608B8B608B8B3C8B8B608B8B608B8B8B608B8B608B8B3C8B8B608B8B608B8B8B608B8B608B8B3C8B8B608B8B608B8B608B8B8B608B8B3C8B8B608B8B608B8B608B8B8B608B8B3C8B8B608B8B608B8B608B8B608B8B8B3C8B8B608B8B608B8B608B8B608B8B8B3C8B8B608B8B608B8B608B8B
310
608B8B3C8B8B8B608B8B608B8B608B8B608B8B3C8B8B8B608B8B608B8B608B8B608B8B3C8B8B608B8B8B608B8B608B8B608B8B3C8B8B608B8B8B608B8B608B8B608B8B3C8B8B608B8B608B8B8B608B8B608B8B3C8B8B608B608B8B608B8B608B8B608B8B3C8B8B8B608B8B608B8B608B8B608B8B3C8B8B608B8B8B608B8B60
310
8B8B608B8B3C8B8B608B8B8B608B8B608B8B608B8B3C8B8B608B8B608B8B8B608B8B608B8B3C8B8B608B8B608B8B8B608B8B608B8B3C8B8B608B8B608B8B608B8B8B608B8B3C8B8B608B8B608B8B608B8B8B608B8B3C8B8B608B8B608B8B608B8B608B8B8B3C8B8B608B8B608B8B608B8B608B8B8B3C8B8B608B8B608B8B60
310
8B8B608B8B3C8B8B8B608B8B608B8B608B8B608B8B3C8B8B8B608B8B608B8B608B8B608B8B3C8B8B608B8B8B608B8B608B8B608B8B3C8B8B608B8B8B608B8B608B8B608B8B3C8B8B608B8B608B8B8B608B8B608B8B3C8B8B608B608B8B608B8B608B8B608B8B3C8B8B8B608B8B608B8B608B8B608B8B3C8B8B608B8B8B608B
310
8B608B8B608B8B3C8B8B608B8B8B608B8B608B8B608B8B3C8B8B608B8B608B8B8B608B8B608B8B3C8B8B608B8B608B8B8B608B8B608B8B3C8B8B608B8B608B8B608B8B8B608B8B3C8B8B608B8B608B8B608B8B8B608B8B3C8B8B608B8B608B8B608B8B608B8B8B3C8B8B608B8B608B8B608B8B608B8B8B3C8B8B608B8B608B
310
8B608B8B608B8B3C8B8B8B608B8B608B8B608B8B608B8B3C8B8B8B608B8B608B8B608B8B608B8B3C8B8B608B8B8B608B8B608B8B608B8B3C8B8B608B8B8B608B8B608B8B608B8B3C8B8B608B8B608B8B8B608B8B608B8B3C8B8B60606060606060606060606060603C6060606060606060606060606060603C606060606060
310
6060606060606060603C6060606060606060606060606060603C6060606060606060606060606060603C6060606060606060606060606060603C6060606060606060606060606060603C6060606060606060606060606060603C6060606060606060606060606060603C6060606060606060606060606060603C6060606060
310
6060606060606060603C6060606060606060606060606060603C6060606060606060606060606060603C6060606060606060606060606060603C6060606060606060606060606060603C6060606060606060606060606060603C6060608B608B8B608B8B608B8B608B8B3C8B8B8B608B8B608B8B608B8B608B8B3C8B8B608B
310
8B8B608B8B608B8B608B8B3C8B8B608B8B8B608B8B608B8B608B8B3C8B8B608B8B608B8B8B608B8B608B8B3C8B8B608B8B608B8B8B608B8B608B8B3C8B8B608B8B608B8B608B8B8B608B8B3C8B8B608B8B608B8B608B8B8B608B8B3C8B8B608B8B608B8B608B8B608B8B8B3C8B8B608B8B608B8B608B8B608B8B8B3C8B8B60
310
8B8B608B8B608B8B608B8B3C8B8B8B608B8B608B8B608B8B608B8B3C8B8B8B608B8B608B8B608B8B608B8B3C8B8B608B8B8B608B8B608B8B608B8B3C8B8B608B8B8B608B8B608B8B608B8B3C8B8B608B8B608B8B8B608B8B608B8B3C8B8B608B608B8B608B8B608B8B608B8B3C8B8B8B608B8B608B8B608B8B608B8B3C8B8B
310
608B8B8B608B8B608B8B608B8B3C8B8B608B8B8B608B8B608B8B608B8B3C8B8B608B8B608B8B8B608B8B608B8B3C8B8B608B8B608B8B8B608B8B608B8B3C8B8B608B8B608B8B608B8B8B608B8B3C8B8B608B8B608B8B608B8B8B608B8B3C8B8B608B8B608B8B608B8B608B8B8B3C8B8B608B8B608B8B608B8B608B8B8B3C8B
310
8B608B8B608B8B608B8B608B8B3C8B8B8B608B8B608B8B608B8B608B8B3C8B8B8B608B8B608B8B608B8B608B8B3C8B8B608B8B8B608B8B608B8B608B8B3C8B8B608B8B8B608B8B608B8B608B8B3C8B8B608B8B608B8B8B608B8B608B8B3C8B8B603C3C3C3C3C3C3C3C3C3C3C3C3C3C3C3C3C3C3C3C3C3C3C3C3C3C3C3C3C3C
310
3C3C3C3C3C3C3C3C3C3C3C3C3C3C3C3C3C3C3C3C3C3C3C3C3C3C3C3C3C3C3C3C3C3C3C3C3C3C3C3C3C3C3C3C3C3C3C3C3C3C3C3C3C3C3C3C3C3C3C3C3C3C3C3C3C3C3C3C3C3C3C3C3C3C3C3C3C3C3C3C3C3C3C3C3C3C3C3C3C3C3C3C3C3C3C3C3C3C3C3C3C3C3C3C3C3C3C3C3C3C3C3C3C3C3C3C3C3C3C3C3C3C3C3C3C3C3C
310
3C3C3C3C3C3C3C3C3C3C3C3C3C3C3C3C3C3C3C3C3C3C3C3C3C3C3C3C3C3C3C3C3C3C3C3C3C3C3C3C3C3C3C3C3C3C3C3C3C3C3C3C3C3C3C3C3C3C3C3C3C3C3C3C3C3C3C3C3C3C3C3C3C3C3C3C3C3C3C3C3C3C3C3C3C3C3C3C3C3C3C3C3C3C3C3C3C3C3C8B608B8B608B8B608B8B608B8B3C8B8B8B608B8B608B8B608B8B608B
310
8B3C8B8B608B8B8B608B8B608B8B608B8B3C8B8B608B8B8B608B8B608B8B608B8B3C8B8B608B8B608B8B8B608B8B608B8B3C8B8B608B8B608B8B8B608B8B608B8B3C8B8B608B8B608B8B608B8B8B608B8B3C8B8B608B8B608B8B608B8B8B608B8B3C8B8B608B8B608B8B608B8B608B8B8B3C8B8B608B8B608B8B608B8B608B
310
8B8B3C8B8B608B8B608B8B608B8B608B8B3C8B8B8B608B8B608B8B608B8B608B8B3C8B8B8B608B8B608B8B608B8B608B8B3C8B8B608B8B8B608B8B608B8B608B8B3C8B8B608B8B8B608B8B608B8B608B8B3C8B8B608B8B608B8B8B608B8B608B8B3C8B8B608B608B8B608B8B608B8B608B8B3C8B8B8B608B8B608B8B608B8B
310
608B8B3C8B8B608B8B8B608B8B608B8B608B8B3C8B8B608B8B8B608B8B608B8B608B8B3C8B8B608B8B608B8B8B608B8B608B8B3C8B8B608B8B608B8B8B608B8B608B8B3C8B8B608B8B608B8B608B8B8B608B8B3C8B8B608B8B608B8B608B8B8B608B8B3C8B8B608B8B608B8B608B8B608B8B8B3C8B8B608B8B608B8B608B8B
310
608B8B8B3C8B8B608B8B608B8B608B8B608B8B3C8B8B8B608B8B608B8B608B8B608B8B3C8B8B8B608B8B608B8B608B8B608B8B3C8B8B608B8B8B608B8B608B8B608B8B3C8B8B608B8B8B608B8B608B8B608B8B3C8B8B608B8B608B8B8B608B8B608B8B3C8B8B60606060606060606060606060603C60606060606060606060
310
60606060603C6060606060606060606060606060603C6060606060606060606060606060603C6060606060606060606060606060603C6060606060606060606060606060603C6060606060606060606060606060603C6060606060606060606060606060603C6060606060606060606060606060603C606060606060606060
310
6060606060603C60606060606060606060606060603C6060606060606060606060606060603C6060606060606060606060606060603C6060606060606060606060606060603C6060606060606060606060606060603C6060606060606060606060606060603C6060608B608B8B608B8B608B8B608B8B3C8B8B8B608B8B608B
310
8B608B8B608B8B3C8B8B608B8B8B608B8B608B8B608B8B3C8B8B608B8B8B608B8B608B8B608B8B3C8B8B608B8B608B8B8B608B8B608B8B3C8B8B608B8B608B8B8B608B8B608B8B3C8B8B608B8B608B8B608B8B8B608B8B3C8B8B608B8B608B8B608B8B8B608B8B3C8B8B608B8B608B8B608B8B608B8B8B3C8B8B608B8B608B
310
8B608B8B608B8B8B3C8B8B608B8B608B8B608B8B608B8B3C8B8B8B608B8B608B8B608B8B608B8B3C8B8B8B608B8B608B8B608B8B608B8B3C8B8B608B8B8B608B8B608B8B608B8B3C8B8B608B8B8B608B8B608B8B608B8B3C8B8B608B8B608B8B8B608B8B608B8B3C8B8B608B608B8B608B8B608B8B608B8B3C8B8B8B608B8B
310
608B8B608B8B608B8B3C8B8B608B8B8B608B8B608B8B608B8B3C8B8B608B8B8B608B8B608B8B608B8B3C8B8B608B8B608B8B8B608B8B608B8B3C8B8B608B8B608B8B8B608B8B608B8B3C8B8B608B8B608B8B608B8B8B608B8B3C8B8B608B8B608B8B608B8B8B608B8B3C8B8B608B8B608B8B608B8B608B8B8B3C8B8B608B8B
310
608B8B608B8B608B8B8B3C8B8B608B8B608B8B608B8B608B8B3C8B8B8B608B8B608B8B608B8B608B8B3C8B8B8B608B8B608B8B608B8B608B8B3C8B8B608B8B8B608B8B608B8B608B8B3C8B8B608B8B8B608B8B608B8B608B8B3C8B8B608B8B608B8B8B608B8B608B8B3C8B8B60606060606060606060606060603C60606060
310
60606060606060606060603C6060606060606060606060606060603C6060606060606060606060606060603C6060606060606060606060606060603C6060606060606060606060606060603C6060606060606060606060606060603C6060606060606060606060606060603C6060606060606060606060606060603C606060
310
6060606060606060606060603C60606060606060606060606060603C6060606060606060606060606060603C6060606060606060606060606060603C6060606060606060606060606060603C6060606060606060606060606060603C6060606060606060606060606060603C6060608B608B8B608B8B608B8B608B8B3C8B8B
310
8B608B8B608B8B608B8B608B8B3C8B8B608B8B8B608B8B608B8B608B8B3C8B8B608B8B8B608B8B608B8B608B8B3C8B8B608B8B608B8B8B608B8B608B8B3C8B8B608B8B608B8B8B608B8B608B8B3C8B8B608B8B608B8B608B8B8B608B8B3C8B8B608B8B608B8B608B8B8B608B8B3C8B8B608B8B608B8B608B8B608B8B8B3C8B
310
8B608B8B608B8B608B8B608B8B8B3C8B8B608B8B608B8B608B8B608B8B3C8B8B8B608B8B608B8B608B8B608B8B3C8B8B8B608B8B608B8B608B8B608B8B3C8B8B608B8B8B608B8B608B8B608B8B3C8B8B608B8B8B608B8B608B8B608B8B3C8B8B608B8B608B8B8B608B8B608B8B3C8B8B608B608B8B608B8B608B8B608B8B3C
310
8B8B8B608B8B608B8B608B8B608B8B3C8B8B608B8B8B608B8B608B8B608B8B3C8B8B608B8B8B608B8B608B8B608B8B3C8B8B608B8B608B8B8B608B8B608B8B3C8B8B608B8B608B8B8B608B8B608B8B3C8B8B608B8B608B8B608B8B8B608B8B3C8B8B608B8B608B8B608B8B8B608B8B3C8B8B608B8B608B8B608B8B608B8B8B
310
3C8B8B608B8B608B8B608B8B608B8B8B3C8B8B608B8B608B8B608B8B608B8B3C8B8B8B608B8B608B8B608B8B608B8B3C8B8B8B608B8B608B8B608B8B608B8B3C8B8B608B8B8B608B8B608B8B608B8B3C8B8B608B8B8B608B8B608B8B608B8B3C8B8B608B8B608B8B8B608B8B608B8B3C8B8B60606060606060606060606060
310
603C6060606060606060606060606060603C6060606060606060606060606060603C6060606060606060606060606060603C6060606060606060606060606060603C6060606060606060606060606060603C6060606060606060606060606060603C6060606060606060606060606060603C60606060606060606060606060
310
60603C6060606060606060606060606060603C60606060606060606060606060603C6060606060606060606060606060603C6060606060606060606060606060603C6060606060606060606060606060603C6060606060606060606060606060603C6060606060606060606060606060603C6060608B608B8B608B8B608B8B
310
608B8B3C8B8B8B608B8B608B8B608B8B608B8B3C8B8B608B8B8B608B8B608B8B608B8B3C8B8B608B8B8B608B8B608B8B608B8B3C8B8B608B8B608B8B8B608B8B608B8B3C8B8B608B8B608B8B8B608B8B608B8B3C8B8B608B8B608B8B608B8B8B608B8B3C8B8B608B8B608B8B608B8B8B608B8B3C8B8B608B8B608B8B608B8B
310
608B8B8B3C8B8B608B8B608B8B608B8B608B8B8B3C8B8B608B8B608B8B608B8B608B8B3C8B8B8B608B8B608B8B608B8B608B8B3C8B8B8B608B8B608B8B608B8B608B8B3C8B8B608B8B8B608B8B608B8B608B8B3C8B8B608B8B8B608B8B608B8B608B8B3C8B8B608B8B608B8B8B608B8B608B8B3C8B8B608B608B8B608B8B60
310
8B8B608B8B3C8B8B8B608B8B608B8B608B8B608B8B3C8B8B608B8B8B608B8B608B8B608B8B3C8B8B608B8B8B608B8B608B8B608B8B3C8B8B608B8B608B8B8B608B8B608B8B3C8B8B608B8B608B8B8B608B8B608B8B3C8B8B608B8B608B8B608B8B8B608B8B3C8B8B608B8B608B8B608B8B8B608B8B3C8B8B608B8B608B8B60
310
8B8B608B8B8B3C8B8B608B8B608B8B608B8B608B8B8B3C8B8B608B8B608B8B608B8B608B8B3C8B8B8B608B8B608B8B608B8B608B8B3C8B8B8B608B8B608B8B608B8B608B8B3C8B8B608B8B8B608B8B608B8B608B8B3C8B8B608B8B8B608B8B608B8B608B8B3C8B8B608B8B608B8B8B608B8B608B8B3C8B8B60606060606060
310
606060606060603C6060606060606060606060606060603C6060606060606060606060606060603C6060606060606060606060606060603C6060606060606060606060606060603C6060606060606060606060606060603C6060606060606060606060606060603C6060606060606060606060606060603C60606060606060
310
60606060606060603C6060606060606060606060606060603C60606060606060606060606060603C6060606060606060606060606060603C6060606060606060606060606060603C6060606060606060606060606060603C6060606060606060606060606060603C6060606060606060606060606060603C6060608B608B8B
310
608B8B608B8B608B8B3C8B8B8B608B8B608B8B608B8B608B8B3C8B8B608B8B8B608B8B608B8B608B8B3C8B8B608B8B8B608B8B608B8B608B8B3C8B8B608B8B608B8B8B608B8B608B8B3C8B8B608B8B608B8B8B608B8B608B8B3C8B8B608B8B608B8B608B8B8B608B8B3C8B8B608B8B608B8B608B8B8B608B8B3C8B8B608B8B
310
608B8B608B8B608B8B8B3C8B8B608B8B608B8B608B8B608B8B8B3C8B8B608B8B608B8B608B8B608B8B3C8B8B8B608B8B608B8B608B8B608B8B3C8B8B8B608B8B608B8B608B8B608B8B3C8B8B608B8B8B608B8B608B8B608B8B3C8B8B608B8B8B608B8B608B8B608B8B3C8B8B608B8B608B8B8B608B8B608B8B3C8B8B608B60
310
8B8B608B8B608B8B608B8B3C8B8B8B608B8B608B8B608B8B608B8B3C8B8B608B8B8B608B8B608B8B608B8B3C8B8B608B8B8B608B8B608B8B608B8B3C8B8B608B8B608B8B8B608B8B608B8B3C8B8B608B8B608B8B8B608B8B608B8B3C8B8B608B8B608B8B608B8B8B608B8B3C8B8B608B8B608B8B608B8B8B608B8B3C8B8B60
310
8B8B608B8B608B8B608B8B8B3C8B8B608B8B608B8B608B8B608B8B8B3C8B8B608B8B608B8B608B8B608B8B3C8B8B8B608B8B608B8B608B8B608B8B3C8B8B8B608B8B608B8B608B8B608B8B3C8B8B608B8B8B608B8B608B8B608B8B3C8B8B608B8B8B608B8B608B8B608B8B3C8B8B608B8B608B8B8B608B8B608B8B3C8B8B60
310
8B608B8B608B8B608B8B608B8B3C8B8B8B608B8B608B8B608B8B608B8B3C8B8B608B8B8B608B8B608B8B608B8B3C8B8B608B8B8B608B8B608B8B608B8B3C8B8B608B8B608B8B8B608B8B608B8B3C8B8B608B8B608B8B8B608B8B608B8B3C8B8B608B8B608B8B608B8B8B608B8B3C8B8B608B8B608B8B608B8B8B608B8B3C8B
310
8B608B8B608B8B608B8B608B8B8B3C8B8B608B8B608B8B608B8B608B8B8B3C8B8B608B8B608B8B608B8B608B8B3C8B8B8B608B8B608B8B608B8B608B8B3C8B8B8B608B8B608B8B608B8B608B8B3C8B8B608B8B8B608B8B608B8B608B8B3C8B8B608B8B8B608B8B608B8B608B8B3C8B8B608B8B608B8B8B608B8B608B8B3C8B
310
8B603C3C3C3C3C3C3C3C3C3C3C3C3C3C3C3C3C3C3C3C3C3C3C3C3C3C3C3C3C3C3C3C3C3C3C3C3C3C3C3C3C3C3C3C3C3C3C3C3C3C3C3C3C3C3C3C3C3C3C3C3C3C3C3C3C3C3C3C3C3C3C3C3C3C3C3C3C3C3C3C3C3C3C3C3C3C3C3C3C3C3C3C3C3C3C3C3C3C3C3C3C3C3C3C3C3C3C3C3C3C3C3C3C3C3C3C3C3C3C3C3C3C3C3C3C
310
3C3C3C3C3C3C3C3C3C3C3C3C3C3C3C3C3C3C3C3C3C3C3C3C3C3C3C3C3C3C3C3C3C3C3C3C3C3C3C3C3C3C3C3C3C3C3C3C3C3C3C3C3C3C3C3C3C3C3C3C3C3C3C3C3C3C3C3C3C3C3C3C3C3C3C3C3C3C3C3C3C3C3C3C3C3C3C3C3C3C3C3C3C3C3C3C3C3C3C3C3C3C3C3C3C3C3C3C3C3C3C3C3C3C3C3C3C3C3C3C3C3C3C3C3C3C3C
310
3C3C3C3C8B608B8B608B8B608B8B608B8B3C8B8B8B608B8B608B8B608B8B608B8B3C8B8B608B8B8B608B8B608B8B608B8B3C8B8B608B8B8B608B8B608B8B608B8B3C8B8B608B8B608B8B8B608B8B608B8B3C8B8B608B8B608B8B8B608B8B608B8B3C8B8B608B8B608B8B608B8B8B608B8B3C8B8B608B8B608B8B608B8B8B60
310
8B8B3C8B8B608B8B608B8B608B8B608B8B8B3C8B8B608B8B608B8B608B8B608B8B8B3C8B8B608B8B608B8B608B8B608B8B3C8B8B8B608B8B608B8B608B8B608B8B3C8B8B8B608B8B608B8B608B8B608B8B3C8B8B608B8B8B608B8B608B8B608B8B3C8B8B608B8B8B608B8B608B8B608B8B3C8B8B608B8B608B8B8B608B8B60
310
8B8B3C8B8B608B608B8B608B8B608B8B608B8B3C8B8B8B608B8B608B8B608B8B608B8B3C8B8B608B8B8B608B8B608B8B608B8B3C8B8B608B8B8B608B8B608B8B608B8B3C8B8B608B8B608B8B8B608B8B608B8B3C8B8B608B8B608B8B8B608B8B608B8B3C8B8B608B8B608B8B608B8B8B608B8B3C8B8B608B8B608B8B608B8B
310
8B608B8B3C8B8B608B8B608B8B608B8B608B8B8B3C8B8B608B8B608B8B608B8B608B8B8B3C8B8B608B8B608B8B608B8B608B8B3C8B8B8B608B8B608B8B608B8B608B8B3C8B8B8B608B8B608B8B608B8B608B8B3C8B8B608B8B8B608B8B608B8B608B8B3C8B8B608B8B8B608B8B608B8B608B8B3C8B8B608B8B608B8B8B608B
310
8B608B8B3C8B8B60606060606060606060606060603C6060606060606060606060606060603C6060606060606060606060606060603C6060606060606060606060606060603C6060606060606060606060606060603C6060606060606060606060606060603C6060606060606060606060606060603C606060606060606060
310
6060606060603C6060606060606060606060606060603C6060606060606060606060606060603C60606060606060606060606060603C6060606060606060606060606060603C6060606060606060606060606060603C6060606060606060606060606060603C6060606060606060606060606060603C606060606060606060
310
6060606060603C6060608B608B8B608B8B608B8B608B8B3C8B8B8B608B8B608B8B608B8B608B8B3C8B8B608B8B8B608B8B608B8B608B8B3C8B8B608B8B8B608B8B608B8B608B8B3C8B8B608B8B608B8B8B608B8B608B8B3C8B8B608B8B608B8B8B608B8B608B8B3C8B8B608B8B608B8B608B8B8B608B8B3C8B8B608B8B608B
310
8B608B8B8B608B8B3C8B8B608B8B608B8B608B8B608B8B8B3C8B8B608B8B608B8B608B8B608B8B8B3C8B8B608B8B608B8B608B8B608B8B3C8B8B8B608B8B608B8B608B8B608B8B3C8B8B8B608B8B608B8B608B8B608B8B3C8B8B608B8B8B608B8B608B8B608B8B3C8B8B608B8B8B608B8B608B8B608B8B3C8B8B608B8B608B
310
8B8B608B8B608B8B3C8B8B608B608B8B608B8B608B8B608B8B3C8B8B8B608B8B608B8B608B8B608B8B3C8B8B608B8B8B608B8B608B8B608B8B3C8B8B608B8B8B608B8B608B8B608B8B3C8B8B608B8B608B8B8B608B8B608B8B3C8B8B608B8B608B8B8B608B8B608B8B3C8B8B608B8B608B8B608B8B8B608B8B3C8B8B608B8B
310
608B8B608B8B8B608B8B3C8B8B608B8B608B8B608B8B608B8B8B3C8B8B608B8B608B8B608B8B608B8B8B3C8B8B608B8B608B8B608B8B608B8B3C8B8B8B608B8B608B8B608B8B608B8B3C8B8B8B608B8B608B8B608B8B608B8B3C8B8B608B8B8B608B8B608B8B608B8B3C8B8B608B8B8B608B8B608B8B608B8B3C8B8B608B8B
310
608B8B8B608B8B608B8B3C8B8B60606060606060606060606060603C6060606060606060606060606060603C6060606060606060606060606060603C6060606060606060606060606060603C6060606060606060606060606060603C6060606060606060606060606060603C6060606060606060606060606060603C606060
310
6060606060606060606060603C6060606060606060606060606060603C6060606060606060606060606060603C60606060606060606060606060603C6060606060606060606060606060603C6060606060606060606060606060603C6060606060606060606060606060603C6060606060606060606060606060603C606060
310
6060606060606060606060603C6060608B608B8B608B8B608B8B608B8B3C8B8B8B608B8B608B8B608B8B608B8B3C8B8B608B8B8B608B8B608B8B608B8B3C8B8B608B8B8B608B8B608B8B608B8B3C8B8B608B8B608B8B8B608B8B608B8B3C8B8B608B8B608B8B8B608B8B608B8B3C8B8B608B8B608B8B608B8B8B608B8B3C8B
310
8B608B8B608B8B608B8B8B608B8B3C8B8B608B8B608B8B608B8B608B8B8B3C8B8B608B8B608B8B608B8B608B8B8B3C8B8B608B8B608B8B608B8B608B8B3C8B8B8B608B8B608B8B608B8B608B8B3C8B8B8B608B8B608B8B608B8B608B8B3C8B8B608B8B8B608B8B608B8B608B8B3C8B8B608B8B8B608B8B608B8B608B8B3C8B
310
8B608B8B608B8B8B608B8B608B8B3C8B8B608B608B8B608B8B608B8B608B8B3C8B8B8B608B8B608B8B608B8B608B8B3C8B8B608B8B8B608B8B608B8B608B8B3C8B8B608B8B8B608B8B608B8B608B8B3C8B8B608B8B608B8B8B608B8B608B8B3C8B8B608B8B608B8B8B608B8B608B8B3C8B8B608B8B608B8B608B8B8B608B8B
310
3C8B8B608B8B608B8B608B8B8B608B8B3C8B8B608B8B608B8B608B8B608B8B8B3C8B8B608B8B608B8B608B8B608B8B8B3C8B8B608B8B608B8B608B8B608B8B3C8B8B8B608B8B608B8B608B8B608B8B3C8B8B8B608B8B608B8B608B8B608B8B3C8B8B608B8B8B608B8B608B8B608B8B3C8B8B608B8B8B608B8B608B8B608B8B
310
3C8B8B608B8B608B8B8B608B8B608B8B3C8B8B60606060606060606060606060603C6060606060606060606060606060603C6060606060606060606060606060603C6060606060606060606060606060603C6060606060606060606060606060603C6060606060606060606060606060603C60606060606060606060606060
310
60603C6060606060606060606060606060603C6060606060606060606060606060603C6060606060606060606060606060603C60606060606060606060606060603C6060606060606060606060606060603C6060606060606060606060606060603C6060606060606060606060606060603C60606060606060606060606060
310
60603C6060606060606060606060606060603C6060608B608B8B608B8B608B8B608B8B3C8B8B8B608B8B608B8B608B8B608B8B3C8B8B608B8B8B608B8B608B8B608B8B3C8B8B608B8B8B608B8B608B8B608B8B3C8B8B608B8B608B8B8B608B8B608B8B3C8B8B608B8B608B8B8B608B8B608B8B3C8B8B608B8B608B8B608B8B
310
8B608B8B3C8B8B608B8B608B8B608B8B8B608B8B3C8B8B608B8B608B8B608B8B608B8B8B3C8B8B608B8B608B8B608B8B608B8B8B3C8B8B608B8B608B8B608B8B608B8B3C8B8B8B608B8B608B8B608B8B608B8B3C8B8B8B608B8B608B8B608B8B608B8B3C8B8B608B8B8B608B8B608B8B608B8B3C8B8B608B8B8B608B8B608B
310
8B608B8B3C8B8B608B8B608B8B8B608B8B608B8B3C8B8B608B608B8B608B8B608B8B608B8B3C8B8B8B608B8B608B8B608B8B608B8B3C8B8B608B8B8B608B8B608B8B608B8B3C8B8B608B8B8B608B8B608B8B608B8B3C8B8B608B8B608B8B8B608B8B608B8B3C8B8B608B8B608B8B8B608B8B608B8B3C8B8B608B8B608B8B60
310
8B8B8B608B8B3C8B8B608B8B608B8B608B8B8B608B8B3C8B8B608B8B608B8B608B8B608B8B8B3C8B8B608B8B608B8B608B8B608B8B8B3C8B8B608B8B608B8B608B8B608B8B3C8B8B8B608B8B608B8B608B8B608B8B3C8B8B8B608B8B608B8B608B8B608B8B3C8B8B608B8B8B608B8B608B8B608B8B3C8B8B608B8B8B608B8B
310
608B8B608B8B3C8B8B608B8B608B8B8B608B8B608B8B3C8B8B60606060606060606060606060603C6060606060606060606060606060603C6060606060606060606060606060603C6060606060606060606060606060603C6060606060606060606060606060603C6060606060606060606060606060603C60606060606060
310
60606060606060603C6060606060606060606060606060603C6060606060606060606060606060603C6060606060606060606060606060603C60606060606060606060606060603C6060606060606060606060606060603C6060606060606060606060606060603C6060606060606060606060606060603C60606060606060
310
60606060606060603C6060606060606060606060606060603C6060608B608B8B608B8B608B8B608B8B3C8B8B8B608B8B608B8B608B8B608B8B3C8B8B608B8B8B608B8B608B8B608B8B3C8B8B608B8B8B608B8B608B8B608B8B3C8B8B608B8B608B8B8B608B8B608B8B3C8B8B608B8B608B8B8B608B8B608B8B3C8B8B608B8B
310
608B8B608B8B8B608B8B3C8B8B608B8B608B8B608B8B8B608B8B3C8B8B608B8B608B8B608B8B608B8B8B3C8B8B608B8B608B8B608B8B608B8B8B3C8B8B608B8B608B8B608B8B608B8B3C8B8B8B608B8B608B8B608B8B608B8B3C8B8B8B608B8B608B8B608B8B608B8B3C8B8B608B8B8B608B8B608B8B608B8B3C8B8B608B8B
310
8B608B8B608B8B608B8B3C8B8B608B8B608B8B8B608B8B608B8B3C8B8B608B608B8B608B8B608B8B608B8B3C8B8B8B608B8B608B8B608B8B608B8B3C8B8B608B8B8B608B8B608B8B608B8B3C8B8B608B8B8B608B8B608B8B608B8B3C8B8B608B8B608B8B8B608B8B608B8B3C8B8B608B8B608B8B8B608B8B608B8B3C8B8B60
310
8B8B608B8B608B8B8B608B8B3C8B8B608B8B608B8B608B8B8B608B8B3C8B8B608B8B608B8B608B8B608B8B8B3C8B8B608B8B608B8B608B8B608B8B8B3C8B8B608B8B608B8B608B8B608B8B3C8B8B8B608B8B608B8B608B8B608B8B3C8B8B8B608B8B608B8B608B8B608B8B3C8B8B608B8B8B608B8B608B8B608B8B3C8B8B60
310
8B8B8B608B8B608B8B608B8B3C8B8B608B8B608B8B8B608B8B608B8B3C8B8B603C3C3C3C3C3C3C3C3C3C3C3C3C3C3C3C3C3C3C3C3C3C3C3C3C3C3C3C3C3C3C3C3C3C3C3C3C3C3C3C3C3C3C3C3C3C3C3C3C3C3C3C3C3C3C3C3C3C3C3C3C3C3C3C3C3C3C3C3C3C3C3C3C3C3C3C3C3C3C3C3C3C3C3C3C3C3C3C3C3C3C3C3C3C3C
310
3C3C3C3C3C3C3C3C3C3C3C3C3C3C3C3C3C3C3C3C3C3C3C3C3C3C3C3C3C3C3C3C3C3C3C3C3C3C3C3C3C3C3C3C3C3C3C3C3C3C3C3C3C3C3C3C3C3C3C3C3C3C3C3C3C3C3C3C3C3C3C3C3C3C3C3C3C3C3C3C3C3C3C3C3C3C3C3C3C3C3C3C3C3C3C3C3C3C3C3C3C3C3C3C3C3C3C3C3C3C3C3C3C3C3C3C3C3C3C3C3C3C3C3C3C3C3C
310
3C3C3C3C3C3C3C3C3C3C3C3C3C3C3C3C3C3C3C3C3C3C3C3C3C3C3C3C3C3C3C3C3C3C8B608B8B608B8B608B8B608B8B3C8B8B8B608B8B608B8B608B8B608B8B3C8B8B608B8B8B608B8B608B8B608B8B3C8B8B608B8B8B608B8B608B8B608B8B3C8B8B608B8B608B8B8B608B8B608B8B3C8B8B608B8B608B8B8B608B8B608B8B
310
3C8B8B608B8B608B8B608B8B8B608B8B3C8B8B608B8B608B8B608B8B8B608B8B3C8B8B608B8B608B8B608B8B608B8B8B3C8B8B608B8B608B8B608B8B608B8B8B3C8B8B608B8B608B8B608B8B608B8B3C8B8B8B608B8B608B8B608B8B608B8B3C8B8B8B608B8B608B8B608B8B608B8B3C8B8B608B8B8B608B8B608B8B608B8B
310
3C8B8B608B8B8B608B8B608B8B608B8B3C8B8B608B8B608B8B8B608B8B608B8B3C8B8B608B608B8B608B8B608B8B608B8B3C8B8B8B608B8B608B8B608B8B608B8B3C8B8B608B8B8B608B8B608B8B608B8B3C8B8B608B8B8B608B8B608B8B608B8B3C8B8B608B8B608B8B8B608B8B608B8B3C8B8B608B8B608B8B8B608B8B60
310
8B8B3C8B8B608B8B608B8B608B8B8B608B8B3C8B8B608B8B608B8B608B8B8B608B8B3C8B8B608B8B608B8B608B8B608B8B8B3C8B8B608B8B608B8B608B8B608B8B8B3C8B8B608B8B608B8B608B8B608B8B3C8B8B8B608B8B608B8B608B8B608B8B3C8B8B8B608B8B608B8B608B8B608B8B3C8B8B608B8B8B608B8B608B8B60
310
8B8B3C8B8B608B8B8B608B8B608B8B608B8B3C8B8B608B8B608B8B8B608B8B608B8B3C8B8B608B608B8B608B8B608B8B608B8B3C8B8B8B608B8B608B8B608B8B608B8B3C8B8B608B8B8B608B8B608B8B608B8B3C8B8B608B8B8B608B8B608B8B608B8B3C8B8B608B8B608B8B8B608B8B608B8B3C8B8B608B8B608B8B8B608B
310
8B608B8B3C8B8B608B8B608B8B608B8B8B608B8B3C8B8B608B8B608B8B608B8B8B608B8B3C8B8B608B8B608B8B608B8B608B8B8B3C8B8B608B8B608B8B608B8B608B8B8B3C8B8B608B8B608B8B608B8B608B8B3C8B8B8B608B8B608B8B608B8B608B8B3C8B8B8B608B8B608B8B608B8B608B8B3C8B8B608B8B8B608B8B608B
310
8B608B8B3C8B8B608B8B8B608B8B608B8B608B8B3C8B8B608B8B608B8B8B608B8B608B8B3C8B8B60606060606060606060606060603C6060606060606060606060606060603C6060606060606060606060606060603C6060606060606060606060606060603C6060606060606060606060606060603C606060606060606060
310
6060606060603C6060606060606060606060606060603C6060606060606060606060606060603C6060606060606060606060606060603C6060606060606060606060606060603C60606060606060606060606060603C6060606060606060606060606060603C6060606060606060606060606060603C606060606060606060
310
6060606060603C6060606060606060606060606060603C6060606060606060606060606060603C6060608B608B8B608B8B608B8B608B8B3C8B8B8B608B8B608B8B608B8B608B8B3C8B8B608B8B8B608B8B608B8B608B8B3C8B8B608B8B8B608B8B608B8B608B8B3C8B8B608B8B608B8B8B608B8B608B8B3C8B8B608B8B608B
310
8B8B608B8B608B8B3C8B8B608B8B608B8B608B8B8B608B8B3C8B8B608B8B608B8B608B8B8B608B8B3C8B8B608B8B608B8B608B8B608B8B8B3C8B8B608B8B608B8B608B8B608B8B8B3C8B8B608B8B608B8B608B8B608B8B3C8B8B8B608B8B608B8B608B8B608B8B3C8B8B8B608B8B608B8B608B8B608B8B3C8B8B608B8B8B60
310
8B8B608B8B608B8B3C8B8B608B8B8B608B8B608B8B608B8B3C8B8B608B8B608B8B8B608B8B608B8B3C8B8B608B608B8B608B8B608B8B608B8B3C8B8B8B608B8B608B8B608B8B608B8B3C8B8B608B8B8B608B8B608B8B608B8B3C8B8B608B8B8B608B8B608B8B608B8B3C8B8B608B8B608B8B8B608B8B608B8B3C8B8B608B8B
310
608B8B8B608B8B608B8B3C8B8B608B8B608B8B608B8B8B608B8B3C8B8B608B8B608B8B608B8B8B608B8B3C8B8B608B8B608B8B608B8B608B8B8B3C8B8B608B8B608B8B608B8B608B8B8B3C8B8B608B8B608B8B608B8B608B8B3C8B8B8B608B8B608B8B608B8B608B8B3C8B8B8B608B8B608B8B608B8B608B8B3C8B8B608B8B
310
8B608B8B608B8B608B8B3C8B8B608B8B8B608B8B608B8B608B8B3C8B8B608B8B608B8B8B608B8B608B8B3C8B8B60606060606060606060606060603C6060606060606060606060606060603C6060606060606060606060606060603C6060606060606060606060606060603C6060606060606060606060606060603C606060
310
6060606060606060606060603C6060606060606060606060606060603C6060606060606060606060606060603C6060606060606060606060606060603C6060606060606060606060606060603C60606060606060606060606060603C6060606060606060606060606060603C6060606060606060606060606060603C606060
310
6060606060606060606060603C6060606060606060606060606060603C6060606060606060606060606060603C6060608B608B8B608B8B608B8B608B8B3C8B8B8B608B8B608B8B608B8B608B8B3C8B8B608B8B8B608B8B608B8B608B8B3C8B8B608B8B8B608B8B608B8B608B8B3C8B8B608B8B608B8B8B608B8B608B8B3C8B
310
8B608B8B608B8B8B608B8B608B8B3C8B8B608B8B608B8B608B8B8B608B8B3C8B8B608B8B608B8B608B8B8B608B8B3C8B8B608B8B608B8B608B8B608B8B8B3C8B8B608B8B608B8B608B8B608B8B8B3C8B8B608B8B608B8B608B8B608B8B3C8B8B8B608B8B608B8B608B8B608B8B3C8B8B8B608B8B608B8B608B8B608B8B3C8B
310
8B608B8B8B608B8B608B8B608B8B3C8B8B608B8B8B608B8B608B8B608B8B3C8B8B608B8B608B8B8B608B8B608B8B3C8B8B608B608B8B608B8B608B8B608B8B3C8B8B8B608B8B608B8B608B8B608B8B3C8B8B608B8B8B608B8B608B8B608B8B3C8B8B608B8B8B608B8B608B8B608B8B3C8B8B608B8B608B8B8B608B8B608B8B
310
3C8B8B608B8B608B8B8B608B8B608B8B3C8B8B608B8B608B8B608B8B8B608B8B3C8B8B608B8B608B8B608B8B8B608B8B3C8B8B608B8B608B8B608B8B608B8B8B3C8B8B608B8B608B8B608B8B608B8B8B3C8B8B608B8B608B8B608B8B608B8B3C8B8B8B608B8B608B8B608B8B608B8B3C8B8B8B608B8B608B8B608B8B608B8B
310
3C8B8B608B8B8B608B8B608B8B608B8B3C8B8B608B8B8B608B8B608B8B608B8B3C8B8B608B8B608B8B8B608B8B608B8B3C8B8B60606060606060606060606060603C6060606060606060606060606060603C6060606060606060606060606060603C6060606060606060606060606060603C60606060606060606060606060
310
60603C6060606060606060606060606060603C6060606060606060606060606060603C6060606060606060606060606060603C6060606060606060606060606060603C6060606060606060606060606060603C60606060606060606060606060603C6060606060606060606060606060603C60606060606060606060606060
310
60603C6060606060606060606060606060603C6060606060606060606060606060603C6060606060606060606060606060603C6060608B608B8B608B8B608B8B608B8B3C8B8B8B608B8B608B8B608B8B608B8B3C8B8B608B8B8B608B8B608B8B608B8B3C8B8B608B8B8B608B8B608B8B608B8B3C8B8B608B8B608B8B8B608B
310
8B608B8B3C8B8B608B8B608B8B8B608B8B608B8B3C8B8B608B8B608B8B608B8B8B608B8B3C8B8B608B8B608B8B608B8B8B608B8B3C8B8B608B8B608B8B608B8B608B8B8B3C8B8B608B8B608B8B608B8B608B8B8B3C8B8B608B8B608B8B608B8B608B8B3C8B8B8B608B8B608B8B608B8B608B8B3C8B8B8B608B8B608B8B608B
310
8B608B8B3C8B8B608B8B8B608B8B608B8B608B8B3C8B8B608B8B8B608B8B608B8B608B8B3C8B8B608B8B608B8B8B608B8B608B8B3C8B8B608B608B8B608B8B608B8B608B8B3C8B8B8B608B8B608B8B608B8B608B8B3C8B8B608B8B8B608B8B608B8B608B8B3C8B8B608B8B8B608B8B608B8B608B8B3C8B8B608B8B608B8B8B
310
608B8B608B8B3C8B8B608B8B608B8B8B608B8B608B8B3C8B8B608B8B608B8B608B8B8B608B8B3C8B8B608B8B608B8B608B8B8B608B8B3C8B8B608B8B608B8B608B8B608B8B8B3C8B8B608B8B608B8B608B8B608B8B8B3C8B8B608B8B608B8B608B8B608B8B3C8B8B8B608B8B608B8B608B8B608B8B3C8B8B8B608B8B608B8B
310
608B8B608B8B3C8B8B608B8B8B608B8B608B8B608B8B3C8B8B608B8B8B608B8B608B8B608B8B3C8B8B608B8B608B8B8B608B8B608B8B3C8B8B60606060606060606060606060603C6060606060606060606060606060603C6060606060606060606060606060603C6060606060606060606060606060603C60606060606060
310
60606060606060603C6060606060606060606060606060603C6060606060606060606060606060603C6060606060606060606060606060603C6060606060606060606060606060603C6060606060606060606060606060603C60606060606060606060606060603C6060606060606060606060606060603C60606060606060
310
60606060606060603C6060606060606060606060606060603C6060606060606060606060606060603C6060606060606060606060606060603C6060608B608B8B608B8B608B8B608B8B3C8B8B8B608B8B608B8B608B8B608B8B3C8B8B608B8B8B608B8B608B8B608B8B3C8B8B608B8B8B608B8B608B8B608B8B3C8B8B608B8B
310
608B8B8B608B8B608B8B3C8B8B608B8B608B8B8B608B8B608B8B3C8B8B608B8B608B8B608B8B8B608B8B3C8B8B608B8B608B8B608B8B8B608B8B3C8B8B608B8B608B8B608B8B608B8B8B3C8B8B608B8B608B8B608B8B608B8B8B3C8B8B608B8B608B8B608B8B608B8B3C8B8B8B608B8B608B8B608B8B608B8B3C8B8B8B608B
310
8B608B8B608B8B608B8B3C8B8B608B8B8B608B8B608B8B608B8B3C8B8B608B8B8B608B8B608B8B608B8B3C8B8B608B8B608B8B8B608B8B608B8B3C8B8B608B608B8B608B8B608B8B608B8B3C8B8B8B608B8B608B8B608B8B608B8B3C8B8B608B8B8B608B8B608B8B608B8B3C8B8B608B8B8B608B8B608B8B608B8B3C8B8B60
310
8B8B608B8B8B608B8B608B8B3C8B8B608B8B608B8B8B608B8B608B8B3C8B8B608B8B608B8B608B8B8B608B8B3C8B8B608B8B608B8B608B8B8B608B8B3C8B8B608B8B608B8B608B8B608B8B8B3C8B8B608B8B608B8B608B8B608B8B8B3C8B8B608B8B608B8B608B8B608B8B3C8B8B8B608B8B608B8B608B8B608B8B3C8B8B8B
310
608B8B608B8B608B8B608B8B3C8B8B608B8B8B608B8B608B8B608B8B3C8B8B608B8B8B608B8B608B8B608B8B3C8B8B608B8B608B8B8B608B8B608B8B3C8B8B603C3C3C3C3C3C3C3C3C3C3C3C3C3C3C3C3C3C3C3C3C3C3C3C3C3C3C3C3C3C3C3C3C3C3C3C3C3C3C3C3C3C3C3C3C3C3C3C3C3C3C3C3C3C3C3C3C3C3C3C3C3C3C
310
3C3C3C3C3C3C3C3C3C3C3C3C3C3C3C3C3C3C3C3C3C3C3C3C3C3C3C3C3C3C3C3C3C3C3C3C3C3C3C3C3C3C3C3C3C3C3C3C3C3C3C3C3C3C3C3C3C3C3C3C3C3C3C3C3C3C3C3C3C3C3C3C3C3C3C3C3C3C3C3C3C3C3C3C3C3C3C3C3C3C3C3C3C3C3C3C3C3C3C3C3C3C3C3C3C3C3C3C3C3C3C3C3C3C3C3C3C3C3C3C3C3C3C3C3C3C3C
310
3C3C3C3C3C3C3C3C3C3C3C3C3C3C3C3C3C3C3C3C3C3C3C3C3C3C3C3C3C3C3C3C3C3C3C3C3C3C3C3C3C3C3C3C3C3C3C3C3C3C3C3C3C3C3C3C3C3C3C3C3C3C3C3C3C3C
  0
XRECORD
  5
616
102
{ACAD_REACTORS
330
1F9
102
}
330
1F9
100
AcDbXrecord
280
     1
102
MATERIAL
148
0.0
149
0.0
149
0.0
 93
        0
 94
      127
282
     0
 72
     1
 77
     1
171
     1
175
     1
179
     1
273
     0
  0
XRECORD
  5
1FA
102
{ACAD_REACTORS
330
1F9
102
}
330
1F9
100
AcDbXrecord
280
     1
 70
     1
 90
429727718
  1
D62C5603-E3A1-4AEA-B7FB-FE5D8D0755AF
310
504B03040A0000080000CC70623B3DEE336E79000000790000001B0000006175746F6465736B2D64657369676E2D7061636B6167652E786D6C3C3F786D6C2076657273696F6E3D22312E302220656E636F64696E673D227574662D3822203F3E3C666F726D6174733E3C666F726D61743E687474703A2F2F736368656D612E
310
6175746F6465736B2E636F6D2F64657369676E2D7061636B6167652F323030393C2F666F726D61743E3C2F666F726D6174733E504B0304140006080800CC70623BD486FD9CA0000000F4000000130000005B436F6E74656E745F54797065735D2E786D6C7D8EC10E82300C865F65E91D8A1E8C310C0EEA1BF002731658846E
310
D98AC1B77784ABF1D8FE5FBFBF75BBCE937A534CCEB38643598122B6FEE978D0B0485F9C41B54DDD7D022595594E1A469170414C76A4D9A4D207E29CF43ECE46F218070CC6BECC4078ACAA135ACF422C856C0E68EA1BF5669944DDD7BCDE7B1F8E415D77AECB980613C2E4AC91FC167A2B244592486606FC29C8FD7F045B9A
310
EF7053A7E60B504B0304140006080800CC70623B853B8169EB0000007C01000008000000636F72652E786D6C8D90416EC3201045AF62CDB6C206821CC7C244919D9CA01740401C94182C03558F5F9C3852BBEB6A467FFE9B197D7EFC9E1EC5975982F5AE035262288C535E5B377690E21535501C055FBC8FBF6C503839990E
310
5619041F179FE64D52DE45E362569DD7661365082642A11EB9E920A89B99642953CC8E702F67A9EE7234257977194EC9EAE275C4EABCCF5EAD5940D4AC6F0E35A568B8F43562CD7046CD199FD07E60174276A7BE677B5EADB0E0D14EEFFB6A31321A0D82627C4084204C3F096B71DD52F6819B16635EADF63F509AF53FA164
310
5DDCD1EDDD17164090FCC8732078B56691CB33A85CD7DCC40F504B0304140006080800CC70623B55019EA25F0000007C00000007000000636E782E786D6C4DCB3B0E80201045D1AD90E915ED2CF8AC45050C11660C8261F98AB1B07AC9C97D42D718D865D3E909258CFD00CCE24AC6E326A164D74DC0B4128928FF32603847
310
2BA13128B1252AC747C6BAB984FC68F0B87FE8960A5C09FE86CFB69FBA01504B0304140006080800CC70623BDBABAAF470010000D40300000C0000006662782F636F72652E786D6CC553D16E823014FD95A6AF4B694182CC941A83FA05FB810A9511A125A5257EFE2E82712ECEB8A7F100CD39F7F69E734AF9FADC366850B6
310
AF8DCE7018308C942E4C59EB2AC3DE1D498AD15A706B8CFB56869196ADCAF00863C12B6B7C374385D14E6907A836A59A41D9F7CA615434B0C8705F7CAA5606D23BA8E84F41278B93AC54100640439DE0BDB320004D43C63716C7C399D30917DCFBBA9CD9BA8469F5B156168B24CED3F7248AC8769F27244EB73B92EED8862C
310
B7F13E0C179B3C8F979C8ECD82BBBABDAA2BAC924E9558448CBD9330242CFA08E3154B5651FCC6D215639C8EE5774DBE2B5F6CF2B5768B68963BB5F5588420E442FC700B1139D4CB01F450C1E918227C2E09DF070D8140C84E1E9AAB8F1340832A9CB13130A5F1376A908D57309505ECF2A0DF179C4E9D30F5B239B87E3823
310
7A79C6F31DE1A8A5AEC08474B03C7837EAE4938639B44E5932B833D2C6B6B279CDC613877FA26EE21F4A2A4C63EC7F29A2F301D1F9F7A0E37D145F504B0304140006080800CC70623B9C113CC27E0000009D0000000B0000006662782F636E782E786D6C4DCCDF0A83201C86E15B91DFB94BFB330DD428C8FB886521330DA7
310
6397BF1A1DECE883878F57749FCDA1B7892F1BBC047A23808C7F84D9FA55424E0BE6803A256208E9EF06C84F9B91703228B1C690F78B66B34CD9A5439DF5CF0BFBF65E35BCA1B8D6A5C6F540381E886698B5741C695F9503EBA150A2F8958E3DC3EA0B504B0304140006080800CC70623B7DF2F77C2A010000120200003100
310
00006662782F41393633353835312D344632462D344230382D423046372D3739314545314133324237412F636F72652E786D6C8D51DB8EC22014FC15C2939B0D2DB4B45643319AE817EC0F6041255A68B86CFCFC856D4D76DF7CE190393373060EDB3DC707F856CE6B6B7A480A0C81328395DA5C7B18C3057510EC3873D686
310
3F34088C18550F330C39BB3A1BA7051AAC09CA84841A2BD5020AEF55806078A44B0FFD7053A328440C89E1EFC52486BBB8AA8214A99D789CF9E05200300FC927E4FB4D5B375D43103D5527440FB843077C5AA3F5861C8F645F5787F59E95B390B318B55CE45AA638FAA2957BD7248B390B7A7CC51F9C124149C82B8C378810
310
84AB2F42B7B8DD56F413775B8C5999E9FF4471926F8AA236A1AE96B8B3CC434E5839373893369E1FAF30EA395917409EB7F26AF8801C171837A4A6AC9C89E9F9C9B1A58BA30FD6A5EF5DDDCF894B9AD9B6A59C957943A9FCAE2FD5BC4DFE03504B0304140006080800CC70623BAD7543B64E01000033030000300000006662
310
782F41393633353835312D344632462D344230382D423046372D3739314545314133324237412F636E782E786D6CD593CD6EC32010845F0571AD6CE3D48AD20813A9873E410FBD12D82434182C7EAAE6EDBB2424CD25871E7B41D6EC30B3FA84F9E67BB2E40B4234DE8DB46F1925E094D7C6ED479AD3AE5951B2113C789FEE
310
6C943839C1488B4C05DF079FE72A69D8C96C13AAD6B8631503449F83828872B949AC57D26200B826A308D316B4064D6E46FCDA41C05550DC9E483A00797BFD207EFB092A45DE9514C1BBD22178396BD39D891265658C238DEA00936C654E5E433CB65A26D9F6EDB5EBC14EBF49A45CB856E66048291F6939A9A81BB5C89177
310
38143CA680F4AA299D66A042CEB3354A2684DC9D8D178FE0D9B8B41CAAD720F880EE7EF93C0C18769E099ECC04D5A102C8049A8A05632F4DDF376CF1DE0F6BB65C2F8627B65A33C6BB62177CEBBDAD973006829F89F22E814B54F4BC2BE347F8AA8F681390B50FA73F804400B5F542E796F19FF974E7F78DB802FE05E20750
310
4B0304140006080800CC70623BE75B7789680500003C100000340000006662782F41393633353835312D344632462D344230382D423046372D3739314545314133324237412F6F626A656374732E786D6CAD575B8F9B3818FD2B887D06C22499CB8AA1CA655245D5B455A356FB305264C061D8018C6C3393D95FBFC7600890
310
A4CD5EF210B0B1BFEBF98E3F7B1FF6596ABC522E1296DF9BAE3D320D9A872C4AF2F8DE2CE5CEBA358D0FBEC719939D65A691938CDE9B6ADAF4BD98B3B2D05311DD91329583D9D5FC0F438434A7A611A644887B5384CF34233629258BA878B12322891DEFF6B66BD70BFB62634E8AE781D082709A4B588AF91C528CDA28B73F
310
1C998EEF39EABBEFA97FBD6A7C7E9553F9D3D79FE442923C3C523610337627CB87ABE99D359D4CC6D6E4FACAB5E6ABF9D2726FC6A3C5F56271377BB88362213924694B38DD99FE47C48627A1E7D49F5A8BB5E1A74C0A599ED3B0F21F1E56366B89112D681E218F0915D0D6F17AD41FBA2A369DCF6335D62ABBD39779D5DDD1
310
11D4D8DE3CBB96B2E04FB8202E41051754A1AA8E8F76B4C6DFE810B580B1547F4B84911149794252234D024EF8BBE963A95AE27B3D310A9D5C215C7960FAEE415ED75694C6AFB17BCACA5D99A60A9AA65F217B0BFC53292ACB92BF283FAD0D3621576592CB5BED907C2FA8E9DF794E35E97BEA31BED21FEB401ABB94C44839
310
DCACBF0E1C5DA8DA5B2F4DFFD32AD86F543D9E565E7056502E157C00AD2671CD534549AB752FCA9CDA00677A313F04E51B22FF19E57B300579E3C97EB29F682D92935CEC18CF901B7B54FD8C51F362B56FC72FE0B3C1EAE335EDCCBF5AEC39ADB17DC238973F804BA5E6F6BFE7AF1FB32E523BE9F3BD571418E3631DCA4D48
310
5250CF639223210A9446CA30052EDF057BD35F8329C1ECD84552BF0DC8D18BE7BCE23BFE6BD960AB4A7DE79923A103BEBD80F911CBAA2C60DB19B01CF164A5583B772EE6D3FFA56666CBCDA74DC97724A48F9A58967497E489C4D979006FD7A05E227A1EBDD0F737C623387A9C844D3709995625106D157315F8B8392CD4E0
310
A0B9A720C4BE9829CEF37EA1E13111214D53925356365ADA634861B52519DD27A00AEB808EAF0628E6F435519D446F45CF2C9CF5214F0A15B2F6D06B79DA3EE3CBF7F56780D2F4E7EF73A0F5E5B02A38D07DC852C6B7C1FBB6664213E0C39E3EBA7FF4E1AD23EA2829407C85E586727488B751B2DB9502BC7B228A3FD68B6E
310
A65A22397E690AA8D158D7E404EC8CDA235CC3B7D1898680131CEC2CDF2638C65196279577750F15884AEE19F94199155B92B13297978469D4F8D358DF0AEF7631E28DC8F0D9F437D5D39A83B2231A1D52D543813A824EF8D44BCFF2FA6A31BD1E8DAD87F1CCB526B3879935BF59CDADD5C37479BB1CDD4CA7B3556B516589
310
EF352754B706114D9C885EC9131DE6EFEB43D99AFE2391C2F958179413D7CFEF6B1B6DB1E7600F00DE6E5C67454A339A4BA2E0FBA85ED26F045D454F463DBFCE484C2F90F2E5E3666003662ED8F755951A7D1BECD5B30B550B2785C8E7320B7292A4838DDA71BBC863ED7613CAF659337A3354231D4FF4A182A54904C2898C
310
98B28C4AD0CE056CCF332A80986E571EE9DBC305BB5FEB7E509220A58D25CF042D712A806AC0AD0C657FDEF80D2D9CEAA2EE4D1C76F60BFE74219A06527D6F82DF6412526107381E55E353090704D085B52408A8913C4ED159D79BDA71BB4BC506F4831350EB6F975CD22D69BF7AC49B91A2C0A9DDA3D5CA36AD20FC478E37
310
E61844E2352865EBCB61A275A65283CAAA9DD27703B4102F5AF51EF5F573B75CBB5AD38BC845F7A49F82A0966A49C2E3EA5EA0ECD326CD965F1DB402C6FA8B51A4658C5C5E2EC9E214602E55810345408596591009A82E7E7FFACA19EEA299B14A0081A705CB3296EBC14CDF658DCD336EA6D1136881AAEB87B81AB9EE53D5
310
F5EB8BC8362082DA24122F98680A4E7930C01A0079749CEA14382A0783E5EBA5A10F8C098456A03D6A4AEB6BB881E2513747552A5DB22C7EDAF83BD5528081A365F7FF06504B0304140006080000CC70623B000000000000000000000000350000006662782F41393633353835312D344632462D344230382D423046372D37
310
39314545314133324237412F76657274696365732E62696E504B0304140006080800CC70623BF270F1330600000004000000360000006662782F41393633353835312D344632462D344230382D423046372D3739314545314133324237412F747269616E676C65732E62696E636660600000504B0304140006080000CC7062
310
3B000000000000000000000000370000006662782F41393633353835312D344632462D344230382D423046372D3739314545314133324237412F617474726962757465732E62696E504B0304140006080800CC70623B08DA0BD19000000041010000360000006662782F41393633353835312D344632462D344230382D4230
310
46372D3739314545314133324237412F6469726563746F72792E786D6C858F410AC3201045AF22B36F53E9A60B35CBEEBAE80D244E44489C6234F4F835464A48035D0DF398FF9F8AF63D0E6CC63039F212F8F9020C7D47C6792B21C5FE7403D62A1188E2E60C98D7234A5830286103A55745067B9D86B8A3CF9C7F90C11DE6
310
07FB144396D7B6A82D282E9A152AD114D5EF2CB866EEE831B8EEA07A7BB5A8D7D61A2BAAEB7FD5F70921FF497D00504B0304140006080800CC70623BEDD1DC58FD000000A00100003B0000006662782F41393633353835312D344632462D344230382D423046372D3739314545314133324237412F7265736F75726365732F
310
636F72652E786D6C8D504B6E833010BD0A9A6D65B00922041947112427E8052C33A156828DFCA97AFC9A40A576D7CDCCE87D344F8F9FBFE667F689CE6B6B3A6039850C8DB2A336530731DC4903D95970676DF82583CCC8193B5861107C72362E3BA4AC096842428D1D7107A5F7182053CF7474E0D507CE32973124857FE48B
310
540F3961CEF244279DE03EB81420DB9EAC1384436FA353E879B1B182C7A8C75DA3C7F453DF353A1075D537A7BA6464B8F535A99AE14A9A2BBD90E350DD183B5CFABE3AF262350B1EF4FC9351399401471025A527C218A1E53BAB5A5AB765F5469B96525EACF23FA6B88CFF34456DC2A1DCE36E360F82A5202F42F062ED2BAD
310
579969AFDD8A6F504B010214000A0000080000CC70623B3DEE336E79000000790000001B00000000000000000000000000000000006175746F6465736B2D64657369676E2D7061636B6167652E786D6C504B01021400140006080800CC70623BD486FD9CA0000000F40000001300000000000000000000000000B20000005B
310
436F6E74656E745F54797065735D2E786D6C504B01021400140006080800CC70623B853B8169EB0000007C010000080000000000000000000000000083010000636F72652E786D6C504B01021400140006080800CC70623B55019EA25F0000007C000000070000000000000000000000000094020000636E782E786D6C504B
310
01021400140006080800CC70623BDBABAAF470010000D40300000C00000000000000000000000000180300006662782F636F72652E786D6C504B01021400140006080800CC70623B9C113CC27E0000009D0000000B00000000000000000000000000B20400006662782F636E782E786D6C504B01021400140006080800CC70
310
623B7DF2F77C2A010000120200003100000000000000000000000000590500006662782F41393633353835312D344632462D344230382D423046372D3739314545314133324237412F636F72652E786D6C504B01021400140006080800CC70623BAD7543B64E010000330300003000000000000000000000000000D2060000
310
6662782F41393633353835312D344632462D344230382D423046372D3739314545314133324237412F636E782E786D6C504B01021400140006080800CC70623BE75B7789680500003C10000034000000000000000000000000006E0800006662782F41393633353835312D344632462D344230382D423046372D3739314545
310
314133324237412F6F626A656374732E786D6C504B01021400140006080000CC70623B0000000000000000000000003500000000000000000000000000280E00006662782F41393633353835312D344632462D344230382D423046372D3739314545314133324237412F76657274696365732E62696E504B01021400140006
310
080800CC70623BF270F133060000000400000036000000000000000000000000007B0E00006662782F41393633353835312D344632462D344230382D423046372D3739314545314133324237412F747269616E676C65732E62696E504B01021400140006080000CC70623B0000000000000000000000003700000000000000
310
000000000000D50E00006662782F41393633353835312D344632462D344230382D423046372D3739314545314133324237412F617474726962757465732E62696E504B01021400140006080800CC70623B08DA0BD1900000004101000036000000000000000000000000002A0F00006662782F41393633353835312D344632
310
462D344230382D423046372D3739314545314133324237412F6469726563746F72792E786D6C504B01021400140006080800CC70623BEDD1DC58FD000000A00100003B000000000000000000000000000E1000006662782F41393633353835312D344632462D344230382D423046372D3739314545314133324237412F7265
310
736F75726365732F636F72652E786D6C504B0506000000000E000E0080040000641100000000
  0
XRECORD
  5
615
102
{ACAD_REACTORS
330
1F7
102
}
330
1F7
100
AcDbXrecord
280
     1
102
MATERIAL
148
0.0
149
0.0
149
0.0
 93
        0
 94
      127
282
     0
 72
     1
 77
     1
171
     1
175
     1
179
     1
273
     0
  0
XRECORD
  5
1F8
102
{ACAD_REACTORS
330
1F7
102
}
330
1F7
100
AcDbXrecord
280
     1
 70
     1
 90
429727718
  1
30362254-06B7-45E0-A893-8CFA70E3D6BC
310
504B03040A0000080000CC70623B3DEE336E79000000790000001B0000006175746F6465736B2D64657369676E2D7061636B6167652E786D6C3C3F786D6C2076657273696F6E3D22312E302220656E636F64696E673D227574662D3822203F3E3C666F726D6174733E3C666F726D61743E687474703A2F2F736368656D612E
310
6175746F6465736B2E636F6D2F64657369676E2D7061636B6167652F323030393C2F666F726D61743E3C2F666F726D6174733E504B0304140006080800CC70623BD486FD9CA0000000F4000000130000005B436F6E74656E745F54797065735D2E786D6C7D8EC10E82300C865F65E91D8A1E8C310C0EEA1BF002731658846E
310
D98AC1B77784ABF1D8FE5FBFBF75BBCE937A534CCEB38643598122B6FEE978D0B0485F9C41B54DDD7D022595594E1A469170414C76A4D9A4D207E29CF43ECE46F218070CC6BECC4078ACAA135ACF422C856C0E68EA1BF5669944DDD7BCDE7B1F8E415D77AECB980613C2E4AC91FC167A2B244592486606FC29C8FD7F045B9A
310
EF7053A7E60B504B0304140006080800CC70623B1EC5D7A3EB0000007C01000008000000636F72652E786D6C8D90416EC3201045AF82665B6103C6756C6122AB4D4ED00B204C5C94182C03558F5F9C3852BBEB6A467FFE9B197D71FC9E6FE8CBACC17AD7032D0820E3B41FAD9B7A48F1820F808E52ACDEC75F36404ECDA687
310
4D0629A6D5A76597B477D1B89855E747B38B2A041301E95B6E7A08FAD3CCAA50296647B8168BD2573599823EBB0CA76447F43862C7BCCF5EAC59410E4DDD9C7973C2755553CCCFA4C603E3040F1565ED3B1FDE4E432BCA0D9622DAF9795FAF464533826484B498524CD807E51D79ED187F21878E10516EF63F505AC67F42C9
310
BA58B1FDDD071640D2FCC87D2045B96591CB3DA85CB7DCE40F504B0304140006080800CC70623B55019EA25F0000007C00000007000000636E782E786D6C4DCB3B0E80201045D1AD90E915ED2CF8AC45050C11660C8261F98AB1B07AC9C97D42D718D865D3E909258CFD00CCE24AC6E326A164D74DC0B4128928FF32603847
310
2BA13128B1252AC747C6BAB984FC68F0B87FE8960A5C09FE86CFB69FBA01504B0304140006080800CC70623B8C9102E971010000D40300000C0000006662782F636F72652E786D6CC5535B6E833010BC8AE5DF0A6C08340F1947A84D4ED00B38C6A128602363A31CBFCB234A53A551FA553EC09AD9F5CE8C31DB9E9B1AF5CA
310
7695D1198E428A91D2D214952E33ECDD315861B4E5CC1AE3BE9561A445A3323CC098B3D21ADFCE9034DA29ED00D5A6503328BA4E398C640D8B0C77F253352214DE4145770A5B214FA2546114020D759C75CE8200340D19DE981F0F6746269C33EFAB6266AB02A655C74A59CCF365BADC27CB5D902ED22848F6340DF238A141
310
BE88E2F57B92BFEDF23523433367AE6A2EEAA455C2A902F398D2751045018D3FA264435F3771F242571B4A1919CA6F9A7C5B3CD9E42BED16F12C776AEB308F40C848FC700B1139D4891EF410CEC810227CC6846F8386402064270EF5C5C709A05E49676C024C61FC95EA45ED154CA5211D1FF4FB8291A913A68E9B83EBBB33
310
E2A7673CDE118E5AE8124C0807CB8377834E366998436B950D7A7746DAD846D4CFD978E0F04FD455FC5D49D2D4C6FE9722321F10997F0F32DC47FE05504B0304140006080800CC70623BFFEA85907E0000009D0000000B0000006662782F636E782E786D6C4DCCD10A83201886E15B91FFDC95D95A811AB6F23E625948A6C3
310
E9D8E5AF46073BFAE0E1E365ED67B3E8ADC3CB78C7815C7240DA3DFC64DCC221C519D7805AC182F7F1EF06C88D9BE6703008B6049F9E274D7A1E938DBB5AE3D6131B2589BA0D3D965551E0B2EA732C9B9A624AAEB41E3A557677029960D9AFB4EF11165F504B0304140006080800CC70623B4FEEA4082C0100001202000031
310
0000006662782F39464131463745442D413632322D343644302D413938332D3331353338454246344243312F636F72652E786D6C8D515B6EC32010BC0AE2AB55850DD871ED0813254D72825EC00192A2C460F1A872FC42ED48ED5F7E00CDCECCCEB26C731F6FE05B39AFADE921293004CA082BB5B9F43086336A21D870E6AC
310
0D7F68109861543DCC30E4ECE26C9C164858139409093556AA051CBC570102714B8F1E7AF1A5C6A11862480C7F2DA6415C878B2A4891CA89C7990F2E050073937C42DE1DB7E4F87ED8A36D4329AA9B3D46DBAEAD504556557BD81DEBDD0761E52CE42C462D17B996298E3E6BE59E35C962CE821E1FF18553435012728A7187
310
0841987E927A8D9B35ADDF70BBC6989599FE4F1427F9A4286A132ABAC49D651EF234CD5CE04CDA78BA3DC2A8FB645D00B9DF8B57E215725C60BCA2A463E54C4CE327C7A65E1C7DB02E7DEFCBF594B864C5CA6CDBD49C957943E9FA5D5FBAF336F90F504B0304140006080800CC70623BAD7543B64E01000033030000300000
310
006662782F39464131463745442D413632322D343644302D413938332D3331353338454246344243312F636E782E786D6CD593CD6EC32010845F0571AD6CE3D48AD20813A9873E410FBD12D82434182C7EAAE6EDBB2424CD25871E7B41D6EC30B3FA84F9E67BB2E40B4234DE8DB46F1925E094D7C6ED479AD3AE5951B2113C
310
789FEE6C943839C1488B4C05DF079FE72A69D8C96C13AAD6B8631503449F83828872B949AC57D26200B826A308D316B4064D6E46FCDA41C05550DC9E483A00797BFD207EFB092A45DE9514C1BBD22178396BD39D891265658C238DEA00936C654E5E433CB65A26D9F6EDB5EBC14EBF49A45CB856E66048291F6939A9A81BB5
310
C8917738143CA680F4AA299D66A042CEB3354A2684DC9D8D178FE0D9B8B41CAAD720F880EE7EF93C0C18769E099ECC04D5A102C8049A8A05632F4DDF376CF1DE0F6BB65C2F8627B65A33C6BB62177CEBBDAD973006829F89F22E814B54F4BC2BE347F8AA8F681390B50FA73F804400B5F542E796F19FF974E7F78DB802FE05
310
E207504B0304140006080800CC70623B16AB87BA640500003C100000340000006662782F39464131463745442D413632322D343644302D413938332D3331353338454246344243312F6F626A656374732E786D6CAD575B6FA33818FD2B887DE6924B3BED8A326A92B68A663B534DD4D13E548A0C38942D60649B369D5FBFC7
310
600890A493BDE42160637FD7F31D7FF63E6FB3D478A55C242CBF3247B66B1A340F5994E4F19559CA8D75611A9F7D8F33263BCB4C232719BD32D5B4E97B316765A1A722BA21652A07B3B7B33F0D11D29C9A46981221AE4C113ED38CD8A4942CA2E2C58E882476BCD9DA23BB5ED8171B73523C0F841684D35CC252CCE79062D4
310
468DFA43D7747CCF51DF7D4FFDEB5593E3AB9CCA9FBEFE241792E4E19EB28198C968BAB8199F5D5A67D3E9C49A9E8F47D6EC76B6B0469F26EEFC7C3EBFBCBEB98462213924694B38DD98FE1D62C393D073EA4FADC5DAF04326852CCF6958F90F0F2B9BB5C48816348F90C7840A68EB78EDF68723159BCEE7891A6B95DDE9D3
310
BCEAEEE8086A6C6F9E5D4B59F0175C10A7A0820BAA5055C7473B5AE3CFDD452D602CD5DF12616444529E90D448938013FE6EFA58AA96F85E4F8C42275708571E98FE6827AF6B2B4AE3D7D83D64E5A64C53054DD3AF90BD06FEA9149565C94FCA0F6B834DC85599E4F2423B24DF0B6AFA979E534DFA9E7A4CC6FA631D486393
310
921829879BF5D781A373557BCB85E97FB90DB62B558F8795179C15944B051F40AB495CF35451D26A4727654E6D8033BD98EF82F21D91FF8AF2DD9982BCF1643BDD4EB516C9492E368C67C88DED563FC36D5EACF66DFF057C3658BDBFA69DF9578B3DA735B64F18C7F20770A9D45CFCF7FCF563D6456A277DBEF78A02637CA2
310
43B90A490AEAB94F72244481D24819A6C0E59B606BFA4B3025981DBB48EAB701D97BF19C577CC77F2D1B6C55A9EF3C732474C0B727303F625995056C3B02963D9EAC146BE78EC5FCEC7FA999EBC5EACBAAE41B12D27B4D2C0BBA49F244E2ECDC81B76B502F113D8F5EE8FB1BE3111CDD4FC2AA9B844CAB1288B68AB90A7CDC
310
1C166AB0D3DC5310625FCC14E779BFD0709F8890A629C9292B1B2DED31A4B0DA928CEE135085754027E3018A397D4D5427D15BD1330B677DC8934285AC3DF45A9EB68FF8F2B8FC0A509AFEECFD0FF2DE25CC6047F7214B195F07EFEB9A094D800F7BFAE8FED187B78EA8A3A400F115961BCAD1215E47C966530AF0EE8128FE
310
58CEBB996A8964FFA529A046635D9353B0336A8F700DDF46271A024E70B0B37C9DE01847591E54DED53D54202AB947E4076556AC49C6CA5C9E1226B7F1A7B1BE15DEED62C41B91E1B3E9AFAAA735036547343A925075041DF0A9979E893B391F8FCFA6967B3EFB644DCF6E5CEBFAE272625DCC6FAF3FB93793C5F90CE1EF57
310
407342756B10D1C489E8953CD1617E5CEECAD6F4EF8914CE5D5D504E5C3F1F9736DA62CFC11E00BCDDB8CC8A9466349744C1F75EBDA4DF09BA8A9E8C7A7E9991989E20E5DBDD6A6003664ED8F7A04A8DBE0DF6EAD9B9AA858342E47399053949D2C146EDB85DE4B176BB0965FBAC19BD19AA918E27FA50C1D22402E144464C
310
59462568E704B6E71915404CB72B8FF4EDE184DDAF753F284990D2C6926782963815403548A70C657FDEF80D2D9CEAA2AE4C1C76F60BFE74219A06527D6582DF6412526107381E55E353090704D085B52408D0933C4ED159D79BDA71BB4BC506F4831350EB6F979CD22D69BF7AC49B91A2C0A9DDA3D5CA36AD20FC478E37E6
310
1844E2352865EBCB6EA275A652E3836BE04EFB400BF1A2556F515F1FBB35B2AB35BD889C744FFA1004B5544B121E57F70215746DD2F5E2C1412B602CBF19455AC6C8E5E9922C4E01E65215385004546899059180EAFCF7A707CE7017CD8CDB0410789AB32C63B91E5CEBBBACB17AC6CD347A022D5075FD106377347AAABA7E
310
7D11590744509B44E205134DC1290F06580320F78E537D3D73540E06CB970B431F185308AD40BBD794D6D77003C5A36E8EAA54BA64597CD8F83BD552A080A365F7FF06504B0304140006080000CC70623B000000000000000000000000350000006662782F39464131463745442D413632322D343644302D413938332D3331
310
353338454246344243312F76657274696365732E62696E504B0304140006080800CC70623BF270F1330600000004000000360000006662782F39464131463745442D413632322D343644302D413938332D3331353338454246344243312F747269616E676C65732E62696E636660600000504B0304140006080000CC70623B
310
000000000000000000000000370000006662782F39464131463745442D413632322D343644302D413938332D3331353338454246344243312F617474726962757465732E62696E504B0304140006080800CC70623B08DA0BD19000000041010000360000006662782F39464131463745442D413632322D343644302D413938
310
332D3331353338454246344243312F6469726563746F72792E786D6C858F410AC3201045AF22B36F53E9A60B35CBEEBAE80D244E44489C6234F4F835464A48035D0DF398FF9F8AF63D0E6CC63039F212F8F9020C7D47C6792B21C5FE7403D62A1188E2E60C98D7234A5830286103A55745067B9D86B8A3CF9C7F90C11DE607
310
FB144396D7B6A82D282E9A152AD114D5EF2CB866EEE831B8EEA07A7BB5A8D7D61A2BAAEB7FD5F70921FF497D00504B0304140006080800CC70623B0D6EF93BFE000000A00100003B0000006662782F39464131463745442D413632322D343644302D413938332D3331353338454246344243312F7265736F75726365732F63
310
6F72652E786D6C8D50596E833010BD0A9ADFCA60B334011947A8694ED00B586642AC041B79A97AFC9A40A5F6AF3F33A3B7689E1E3F7DCD8FEC139DD7D6F4C0720A191A65476DA61E62B892236427C19DB5E1970C322367EC618541F0C9D9B8EC90B226A009093576C41D94DE63804C3DD2D18357379C652E63480A7FCF17A9
310
EE72C29CE5894E3AC17D702940B63D59270887DE46A7D0F36263058F518FBB468FE9A7BE6A7420864373B8D4873369AA8691FA421B3294352543C5CAF65C0F6FEF43CB8BD52C78D0F34F46E550061C419494B6843142CB0F5677F4B52BEB177AEC28E5C52AFF638ACBF84F53D42654E51E77B379102C05791282176B5F693D
310
CB4C7BED567C03504B010214000A0000080000CC70623B3DEE336E79000000790000001B00000000000000000000000000000000006175746F6465736B2D64657369676E2D7061636B6167652E786D6C504B01021400140006080800CC70623BD486FD9CA0000000F40000001300000000000000000000000000B20000005B
310
436F6E74656E745F54797065735D2E786D6C504B01021400140006080800CC70623B1EC5D7A3EB0000007C010000080000000000000000000000000083010000636F72652E786D6C504B01021400140006080800CC70623B55019EA25F0000007C000000070000000000000000000000000094020000636E782E786D6C504B
310
01021400140006080800CC70623B8C9102E971010000D40300000C00000000000000000000000000180300006662782F636F72652E786D6C504B01021400140006080800CC70623BFFEA85907E0000009D0000000B00000000000000000000000000B30400006662782F636E782E786D6C504B01021400140006080800CC70
310
623B4FEEA4082C0100001202000031000000000000000000000000005A0500006662782F39464131463745442D413632322D343644302D413938332D3331353338454246344243312F636F72652E786D6C504B01021400140006080800CC70623BAD7543B64E010000330300003000000000000000000000000000D5060000
310
6662782F39464131463745442D413632322D343644302D413938332D3331353338454246344243312F636E782E786D6C504B01021400140006080800CC70623B16AB87BA640500003C1000003400000000000000000000000000710800006662782F39464131463745442D413632322D343644302D413938332D3331353338
310
454246344243312F6F626A656374732E786D6C504B01021400140006080000CC70623B0000000000000000000000003500000000000000000000000000270E00006662782F39464131463745442D413632322D343644302D413938332D3331353338454246344243312F76657274696365732E62696E504B01021400140006
310
080800CC70623BF270F133060000000400000036000000000000000000000000007A0E00006662782F39464131463745442D413632322D343644302D413938332D3331353338454246344243312F747269616E676C65732E62696E504B01021400140006080000CC70623B0000000000000000000000003700000000000000
310
000000000000D40E00006662782F39464131463745442D413632322D343644302D413938332D3331353338454246344243312F617474726962757465732E62696E504B01021400140006080800CC70623B08DA0BD190000000410100003600000000000000000000000000290F00006662782F39464131463745442D413632
310
322D343644302D413938332D3331353338454246344243312F6469726563746F72792E786D6C504B01021400140006080800CC70623B0D6EF93BFE000000A00100003B000000000000000000000000000D1000006662782F39464131463745442D413632322D343644302D413938332D3331353338454246344243312F7265
310
736F75726365732F636F72652E786D6C504B0506000000000E000E0080040000641100000000
  0
XRECORD
  5
617
102
{ACAD_REACTORS
330
173
102
}
330
173
100
AcDbXrecord
280
     1
102
MATERIAL
148
0.0
149
0.0
149
0.0
 93
        0
 94
      127
282
     0
 72
     1
 77
     1
171
     1
175
     1
179
     1
273
     0
  0
XRECORD
  5
175
102
{ACAD_REACTORS
330
173
102
}
330
173
100
AcDbXrecord
280
     1
270
     1
271
     1
  0
XRECORD
  5
174
102
{ACAD_REACTORS
330
173
102
}
330
173
100
AcDbXrecord
280
     1
270
     1
271
     1
  0
XRECORD
  5
1FB
102
{ACAD_REACTORS
330
173
102
}
330
173
100
AcDbXrecord
280
     1
 70
     0
 90
1673772943
  1
ECE7A1D2-D628-4531-984C-D00F80459256
310
504B03040A0000080000CC70623B3DEE336E79000000790000001B0000006175746F6465736B2D64657369676E2D7061636B6167652E786D6C3C3F786D6C2076657273696F6E3D22312E302220656E636F64696E673D227574662D3822203F3E3C666F726D6174733E3C666F726D61743E687474703A2F2F736368656D612E
310
6175746F6465736B2E636F6D2F64657369676E2D7061636B6167652F323030393C2F666F726D61743E3C2F666F726D6174733E504B0304140006080800CC70623BD486FD9CA0000000F4000000130000005B436F6E74656E745F54797065735D2E786D6C7D8EC10E82300C865F65E91D8A1E8C310C0EEA1BF002731658846E
310
D98AC1B77784ABF1D8FE5FBFBF75BBCE937A534CCEB38643598122B6FEE978D0B0485F9C41B54DDD7D022595594E1A469170414C76A4D9A4D207E29CF43ECE46F218070CC6BECC4078ACAA135ACF422C856C0E68EA1BF5669944DDD7BCDE7B1F8E415D77AECB980613C2E4AC91FC167A2B244592486606FC29C8FD7F045B9A
310
EF7053A7E60B504B0304140006080800CC70623BD9DDAED0EC0000007C01000008000000636F72652E786D6C8D90416EC3201045AF82665B61836D9CD8C2444DD39CA01740405C94182C03558F5F9C3852BBEB6A467FFE9B197D7EF89E6EE8CB2CC17A37002D0820E394D7D68D03A478C17B4007C117EFE32F1B20272733C0
310
2A83E0E3E2D3BC49CABB685CCCAAF3DA6CA20CC14440EA969B0182FA34932C648AD911AEC52CD5558EA6A0CF2EC329598D1E47ACCEFBECC59A050463A7EA5833865FEBDD0E37353BE3EE8DBDE3F6786A48D375FBF6CC78B9C282473B3DEFABC5C86834888A900E538A49F5419B9EB47DD5BC907D4F082F57FB1F28CDFA9F50
310
B22ED6D5F6EE030B20687EE43E10BC5CB3C8E51E54AE6B6EE207504B0304140006080800CC70623B55019EA25F0000007C00000007000000636E782E786D6C4DCB3B0E80201045D1AD90E915ED2CF8AC45050C11660C8261F98AB1B07AC9C97D42D718D865D3E909258CFD00CCE24AC6E326A164D74DC0B4128928FF326038
310
472BA13128B1252AC747C6BAB984FC68F0B87FE8960A5C09FE86CFB69FBA01504B0304140006080800CC70623BA24EB22D72010000D40300000C0000006662782F636F72652E786D6CC5535B6E833010BC8AE5DF0A6C5E49888CA3A6694ED00B38E05014B091B1518EDFE511A5A9D228FD2A1F60CDEC7A67C6986DCE4D8D7A
310
69BA4AAB0C073EC548AA5C17952A33ECECD15B61B4E1CC686DBF9561A44423333CC098B3D268D7CE50AE9595CA02AA74216750749DB418E5352C32DCE59FB211BE70162ABA93DF8AFC244AE9073ED050C759670D0840D390E18DF9F1706664C23973AE2A66B62A605A75ACA4C13C4976E1364A12EF355A2EBD384AF65EFA96
310
BC7B8BED2EA6719AAE16FB8491A199335B351775B991C2CA02F390D2D40B028F861F41BCA68B7518BFD0D59A524686F29B26D7164F36B94AD9289CE54E6D1DE6010819891F6E21228B3AD1831EC219194284CF98F06DD01008846CC5A1BEF83801D4CBDC6A1303536877A57A513B0953A94FC707FDBE6064EA84A9E3E6E0FA
310
EE8CF0E9198F7784A316AA0413C2C2F2E0ECA0934D1AE6D05A69BCDE9E91D2A611F573361E38FC1375157F5752AE6B6DFE4B11990F88CCBF0719EE23FF02504B0304140006080800CC70623B408A7D3B7C0000009D0000000B0000006662782F636E782E786D6C4DCCD10A83201886E15B91FFDC552A92A0064DBC8F581632
310
D3703A76F9ABD1C18E3E78F878E5F0D9027ABBFCF2292AE86E2D20171F69F6715550CB827B40839639A5F2770314A7CD293819B45C73AAFB45B35BA61ACAA1C1C7E7855C58C15BC331339661262CC762340413D68D77DA5B42298546CBE6573AF60CEB2F504B0304140006080800CC70623B449FB9BD290100001202000031
310
0000006662782F36394639363044362D344446342D343946362D394244322D3234314243333846323333332F636F72652E786D6C8D515B6EC32010BC0AE22B55850D98B871848994463E412FE002495162B07854397EA176A4F62F3F2C9A9D991D587EB84F37F0AD7D30CEF6905418026DA553C65E7A98E219ED203808EE9D
310
8B7F6810D871D23D2C3014FCE25D9A57483A1BB58D19B54EE9151C43D0110279CB971E06F9A5A7B11A53CC8C70ADE6515EC78BAE4895DB992778883E0700CB907242D17643D7E2538BD869608875438BBAE38922CAC8F1BDD90DB4691A5E2F42C153326A951B95E398B3D1FE599322163C9AE9115F7A3D46ADA0A018778810
310
84E907617BDCEE297BC5BB3DC6BC2EF47FA234AB2745C9D8D8D035EE220B50105E2F0DC1954B9FB747187D9F9D8FA0CCDB042D5FA0C015C65B42DF78BD10F3F3B363CB56C7109DCFDFBBB97E662ED92EB62D13BC2E1BCAE5777DB9966D8A1F504B0304140006080800CC70623BAD7543B64E01000033030000300000006662
310
782F36394639363044362D344446342D343946362D394244322D3234314243333846323333332F636E782E786D6CD593CD6EC32010845F0571AD6CE3D48AD20813A9873E410FBD12D82434182C7EAAE6EDBB2424CD25871E7B41D6EC30B3FA84F9E67BB2E40B4234DE8DB46F1925E094D7C6ED479AD3AE5951B2113C789FEE
310
6C943839C1488B4C05DF079FE72A69D8C96C13AAD6B8631503449F83828872B949AC57D26200B826A308D316B4064D6E46FCDA41C05550DC9E483A00797BFD207EFB092A45DE9514C1BBD22178396BD39D891265658C238DEA00936C654E5E433CB65A26D9F6EDB5EBC14EBF49A45CB856E66048291F6939A9A81BB5C89177
310
38143CA680F4AA299D66A042CEB3354A2684DC9D8D178FE0D9B8B41CAAD720F880EE7EF93C0C18769E099ECC04D5A102C8049A8A05632F4DDF376CF1DE0F6BB65C2F8627B65A33C6BB62177CEBBDAD973006829F89F22E814B54F4BC2BE347F8AA8F681390B50FA73F804400B5F542E796F19FF974E7F78DB802FE05E20750
310
4B0304140006080800CC70623B8D05915C650500003B100000340000006662782F36394639363044362D344446342D343946362D394244322D3234314243333846323333332F6F626A656374732E786D6CAD575B6FA33814FE2B887D06429276DA1565D4266D158D3A339A6846FB502932E050B66023DB74D2FDF5FB190C01
310
9276B2973C046C8ECFF53B17071F77456EBD502133CEAE6CDF9DD81665314F32965ED995DA3A17B6F5310C04E7AA47665B8C14F4CAD6DB7618A48257A5D94AE89654B91AEDDEDDFC61C998326A5B714EA4BCB265FC440BE2924AF184CA6737218AB8E976E7FA6E4338649B0A523E8D98964450A6A029F619B8588D52FE7039
310
B1BD30F0F4F730D0FF866AF6369557DB33949F31A9088B0F848DD8CCFCF9F2767A76E99CCDE733677E3EF59D9BBB9BA5E37F984D16E78BC5E5F5ED25044B25C0C96822E8D60EEFE11B91C581D77CEA34368A1F5329E68CD1B8B61F16D63A1B8E092D294B10C78C4A48EB593D192E7DED9BDEE7995E1B91FDEDD3ACEA9FE831
310
6A756F9F7D4D79F4274C90A7A04248AA51D5F8C718DAE06FB2F75AC4796EBE65D22A88A22223B995679120E2D50E41AA49C260C046A35368846B0BECD0DFF3EBEB8AD4F835768F69B9ADF25C43D30E6B646F807FAA64AD59F61715C7A54127C4AACA98BA3006A9D792DAE165E0D59B61A01FB3A9F9D838D2DAE62445C86166
310
F37564E842E7DE6A69879FEEA2DD5AE7E371E1A5E025154AC307D06A03D73EB5978C58FFA4C8E9033066E0F3BD53BEC1F39F91BE7B55103791EDE6BBB991A2046172CB4581D8B893FA674DDA17A77B3B7C413D1B511FD2743BFF8A38F03A658705E3ADF8015C3A3417FF3D7E439FF591DA0B5F18BC20C1B8981957AE6392A3
310
F43C640C01D1A0B4728E2DD4F26DB4B3C3152A252A3B4E913CEC1C72F012782FF88EFF8637AA552DBEF76408E8A8DE9E50F9E1CB3A2DA0DB1B6039A893B56063DC5B3E3FFB5F72E67AB9FEB4AEC496C4F4C1149625DD662C53E89D7BF0F6151A046260D1337DFDC94502430F83B0EE07A130A224BCAD7DAE1D9FB6CD422FF6
310
920702629C4BB9AE79C12F243C6432A6794E18E5552BA56B431AAB5D91317302B2B071E86C3A42B1A02F999E24061403B5D0EB639195DA655DD3EBEAB4FB862DDF579F014AD0E73C22F99E28DA57FB98E75C6CA2D74D53086D600F4786E0FE3144B771A8A7B900F03594DB8A633CBC49B2EDB69228BB479CF863B5E807AAAB
310
23872F6DFEB4129B949CA33823F58830E86D65621E10047D9DB34D862E8EAC3C2ABC2F7B2C40D67CDFE01F5545B92105AF983AC54D93D69E56FB8E797F88913F898A9FEC705D3F9D1B54EC8426FB500D40A03BD0119B06E1B95DDC7EB8F6975367793EBD70E66733DFB9BC982F9CE564727731999F5D4ECFCE3B8D6A4DC2A0
310
6D50FD148437D110834A64C6CDDF57FBACB5C307A2A477DFE4939736CFEF2B175371E0E10CF0DD1D5C15654E0BCA14D1E87DD02FF93782A162C0A3D95F1524A52770F972BF1EE9809D13CE7DD599467F8ECE9ADD85CE85A34CD45355448C64F9E8A031DC2D596ACC6E5DD93D9B82DE2EF5CAF81363A8E47996A0DE24564A79
310
4115AACE09C55E14540231FDA13C319787134EBF34E3A022514E5B4D9E0826E25C02D5805B15ABE1BEF51B26383D445DD9E875EE33FE4C22DA16427D65A3BCA92CA6D28DD01DF5DC53330704308475351050232CCD31583787BA75774AFB06E5070DD0C8EF484E19968C5D83BA5B90B244D31E54D55A372320FE4786B7EA58
310
44E135AA5467CB7EA333A61683CC6A8C3257034C10CF46F40EF9F5BE59BE5BD30C3C72D235E95D10345C1D45445A5F0BB47E46A5EBE5570F9380B5FA629579952296A773720405982B9DE04011506178964401AA8BDF1FBF0A8EAB6861DD6580C0E38217056766716DAEB2D6FA0917D3E4116581EADB879C4E7CFFB11EFACD
310
3D641311495D92C8676CB409A72D18610D803CE8A626049E8EC1887CB5B44CC39883690DDA8399B4B9855B481E7D71D4A9D22F96E5BB73BF5793020C02137BF837504B0304140006080000CC70623B000000000000000000000000350000006662782F36394639363044362D344446342D343946362D394244322D32343142
310
43333846323333332F76657274696365732E62696E504B0304140006080800CC70623BF270F1330600000004000000360000006662782F36394639363044362D344446342D343946362D394244322D3234314243333846323333332F747269616E676C65732E62696E636660600000504B0304140006080000CC70623B0000
310
00000000000000000000370000006662782F36394639363044362D344446342D343946362D394244322D3234314243333846323333332F617474726962757465732E62696E504B0304140006080800CC70623B08DA0BD19000000041010000360000006662782F36394639363044362D344446342D343946362D394244322D
310
3234314243333846323333332F6469726563746F72792E786D6C858F410AC3201045AF22B36F53E9A60B35CBEEBAE80D244E44489C6234F4F835464A48035D0DF398FF9F8AF63D0E6CC63039F212F8F9020C7D47C6792B21C5FE7403D62A1188E2E60C98D7234A5830286103A55745067B9D86B8A3CF9C7F90C11DE607FB14
310
4396D7B6A82D282E9A152AD114D5EF2CB866EEE831B8EEA07A7BB5A8D7D61A2BAAEB7FD5F70921FF497D00504B0304140006080800CC70623BCA768048FE000000A00100003B0000006662782F36394639363044362D344446342D343946362D394244322D3234314243333846323333332F7265736F75726365732F636F72
310
652E786D6C8D50596E833010BD0A9ADFCA60D600328E9AA639412F609909B1126CE4A5EAF16B0295DABFFECC8CDEA2797AECF8353F924FB44E193D409E5248504B332A3D0D10FC95B4901C39B3C6F85F3248B49871801506CE266BC2B243D2688FDA47549B11775038871E12F988C7004EDE7016A9083E2ADC3D5D84BC8B09
310
D33C8D74D471E6BC8D0192EDC93A815B742658898E651BCB59086ADC356A8C3FD555A1055ED7E7E254D615792D0F075295F585746FF53B694EE78A565DD736979A65AB9933AFE69F8CD2A2F038022F28ED489E135A7CE4554F9BBEA85E68DB53CAB255FEC71496F19FA6A0B42F8B3DEE6673C0F318E4497096AD7DC5F52C33
310
EEB55BFE0D504B010214000A0000080000CC70623B3DEE336E79000000790000001B00000000000000000000000000000000006175746F6465736B2D64657369676E2D7061636B6167652E786D6C504B01021400140006080800CC70623BD486FD9CA0000000F40000001300000000000000000000000000B20000005B436F
310
6E74656E745F54797065735D2E786D6C504B01021400140006080800CC70623BD9DDAED0EC0000007C010000080000000000000000000000000083010000636F72652E786D6C504B01021400140006080800CC70623B55019EA25F0000007C000000070000000000000000000000000095020000636E782E786D6C504B0102
310
1400140006080800CC70623BA24EB22D72010000D40300000C00000000000000000000000000190300006662782F636F72652E786D6C504B01021400140006080800CC70623B408A7D3B7C0000009D0000000B00000000000000000000000000B50400006662782F636E782E786D6C504B01021400140006080800CC70623B
310
449FB9BD290100001202000031000000000000000000000000005A0500006662782F36394639363044362D344446342D343946362D394244322D3234314243333846323333332F636F72652E786D6C504B01021400140006080800CC70623BAD7543B64E010000330300003000000000000000000000000000D20600006662
310
782F36394639363044362D344446342D343946362D394244322D3234314243333846323333332F636E782E786D6C504B01021400140006080800CC70623B8D05915C650500003B10000034000000000000000000000000006E0800006662782F36394639363044362D344446342D343946362D394244322D32343142433338
310
46323333332F6F626A656374732E786D6C504B01021400140006080000CC70623B0000000000000000000000003500000000000000000000000000250E00006662782F36394639363044362D344446342D343946362D394244322D3234314243333846323333332F76657274696365732E62696E504B010214001400060808
310
00CC70623BF270F13306000000040000003600000000000000000000000000780E00006662782F36394639363044362D344446342D343946362D394244322D3234314243333846323333332F747269616E676C65732E62696E504B01021400140006080000CC70623B00000000000000000000000037000000000000000000
310
00000000D20E00006662782F36394639363044362D344446342D343946362D394244322D3234314243333846323333332F617474726962757465732E62696E504B01021400140006080800CC70623B08DA0BD190000000410100003600000000000000000000000000270F00006662782F36394639363044362D344446342D
310
343946362D394244322D3234314243333846323333332F6469726563746F72792E786D6C504B01021400140006080800CC70623BCA768048FE000000A00100003B000000000000000000000000000B1000006662782F36394639363044362D344446342D343946362D394244322D3234314243333846323333332F7265736F
310
75726365732F636F72652E786D6C504B0506000000000E000E0080040000621100000000
  0
XRECORD
  5
176
102
{ACAD_REACTORS
330
173
102
}
330
173
100
AcDbXrecord
280
     1
270
     1
271
     1
  0
XRECORD
  5
177
102
{ACAD_REACTORS
330
173
102
}
330
173
100
AcDbXrecord
280
     1
270
     1
271
     1
  0
XRECORD
  5
79E
102
{ACAD_REACTORS
330
79D
102
}
330
79D
100
AcDbXrecord
280
     1
102
ACAD_ROUNDTRIP_2012_MLEADER_STYLE
298
     1
  0
XRECORD
  5
79C
102
{ACAD_REACTORS
330
79B
102
}
330
79B
100
AcDbXrecord
280
     1
102
ACAD_ROUNDTRIP_2012_MLEADER_STYLE
298
     1
  0
CELLSTYLEMAP
  5
79A
102
{ACAD_REACTORS
330
162
102
}
330
162
100
AcDbCellStyleMap
 90
        3
300
CELLSTYLE
  1
TABLEFORMAT_BEGIN
 90
        5
170
     1
 91
        0
 92
    32768
 62
   257
 93
        1
300
CONTENTFORMAT
  1
CONTENTFORMAT_BEGIN
 90
        0
 91
        0
 92
      512
 93
        0
300

 40
0.0
140
1.0
 94
        5
 62
     0
340
11
144
6.0
309
CONTENTFORMAT_END
171
     1
301
MARGIN
  1
CELLMARGIN_BEGIN
 40
1.5
 40
1.5
 40
1.5
 40
1.5
 40
0.18
 40
0.18
309
CELLMARGIN_END
 94
        6
 95
        1
302
GRIDFORMAT
  1
GRIDFORMAT_BEGIN
 90
        0
 91
        1
 62
     0
 92
       -2
340
14
 93
        0
 40
1.125
309
GRIDFORMAT_END
 95
        2
302
GRIDFORMAT
  1
GRIDFORMAT_BEGIN
 90
        0
 91
        1
 62
     0
 92
       -2
340
14
 93
        0
 40
1.125
309
GRIDFORMAT_END
 95
        4
302
GRIDFORMAT
  1
GRIDFORMAT_BEGIN
 90
        0
 91
        1
 62
     0
 92
       -2
340
14
 93
        0
 40
1.125
309
GRIDFORMAT_END
 95
        8
302
GRIDFORMAT
  1
GRIDFORMAT_BEGIN
 90
        0
 91
        1
 62
     0
 92
       -2
340
14
 93
        0
 40
1.125
309
GRIDFORMAT_END
 95
       16
302
GRIDFORMAT
  1
GRIDFORMAT_BEGIN
 90
        0
 91
        1
 62
     0
 92
       -2
340
14
 93
        0
 40
1.125
309
GRIDFORMAT_END
 95
       32
302
GRIDFORMAT
  1
GRIDFORMAT_BEGIN
 90
        0
 91
        1
 62
     0
 92
       -2
340
14
 93
        0
 40
1.125
309
GRIDFORMAT_END
309
TABLEFORMAT_END
  1
CELLSTYLE_BEGIN
 90
        1
 91
        1
300
_TITLE
309
CELLSTYLE_END
300
CELLSTYLE
  1
TABLEFORMAT_BEGIN
 90
        5
170
     1
 91
        0
 92
        0
 62
   257
 93
        1
300
CONTENTFORMAT
  1
CONTENTFORMAT_BEGIN
 90
        0
 91
        0
 92
      512
 93
        0
300

 40
0.0
140
1.0
 94
        5
 62
     0
340
11
144
4.5
309
CONTENTFORMAT_END
171
     1
301
MARGIN
  1
CELLMARGIN_BEGIN
 40
1.5
 40
1.5
 40
1.5
 40
1.5
 40
0.18
 40
0.18
309
CELLMARGIN_END
 94
        6
 95
        1
302
GRIDFORMAT
  1
GRIDFORMAT_BEGIN
 90
        0
 91
        1
 62
     0
 92
       -2
340
14
 93
        0
 40
1.125
309
GRIDFORMAT_END
 95
        2
302
GRIDFORMAT
  1
GRIDFORMAT_BEGIN
 90
        0
 91
        1
 62
     0
 92
       -2
340
14
 93
        0
 40
1.125
309
GRIDFORMAT_END
 95
        4
302
GRIDFORMAT
  1
GRIDFORMAT_BEGIN
 90
        0
 91
        1
 62
     0
 92
       -2
340
14
 93
        0
 40
1.125
309
GRIDFORMAT_END
 95
        8
302
GRIDFORMAT
  1
GRIDFORMAT_BEGIN
 90
        0
 91
        1
 62
     0
 92
       -2
340
14
 93
        0
 40
1.125
309
GRIDFORMAT_END
 95
       16
302
GRIDFORMAT
  1
GRIDFORMAT_BEGIN
 90
        0
 91
        1
 62
     0
 92
       -2
340
14
 93
        0
 40
1.125
309
GRIDFORMAT_END
 95
       32
302
GRIDFORMAT
  1
GRIDFORMAT_BEGIN
 90
        0
 91
        1
 62
     0
 92
       -2
340
14
 93
        0
 40
1.125
309
GRIDFORMAT_END
309
TABLEFORMAT_END
  1
CELLSTYLE_BEGIN
 90
        2
 91
        1
300
_HEADER
309
CELLSTYLE_END
300
CELLSTYLE
  1
TABLEFORMAT_BEGIN
 90
        5
170
     1
 91
        0
 92
        0
 62
   257
 93
        1
300
CONTENTFORMAT
  1
CONTENTFORMAT_BEGIN
 90
        0
 91
        0
 92
      512
 93
        0
300

 40
0.0
140
1.0
 94
        2
 62
     0
340
11
144
4.5
309
CONTENTFORMAT_END
171
     1
301
MARGIN
  1
CELLMARGIN_BEGIN
 40
1.5
 40
1.5
 40
1.5
 40
1.5
 40
0.18
 40
0.18
309
CELLMARGIN_END
 94
        6
 95
        1
302
GRIDFORMAT
  1
GRIDFORMAT_BEGIN
 90
        0
 91
        1
 62
     0
 92
       -2
340
14
 93
        0
 40
1.125
309
GRIDFORMAT_END
 95
        2
302
GRIDFORMAT
  1
GRIDFORMAT_BEGIN
 90
        0
 91
        1
 62
     0
 92
       -2
340
14
 93
        0
 40
1.125
309
GRIDFORMAT_END
 95
        4
302
GRIDFORMAT
  1
GRIDFORMAT_BEGIN
 90
        0
 91
        1
 62
     0
 92
       -2
340
14
 93
        0
 40
1.125
309
GRIDFORMAT_END
 95
        8
302
GRIDFORMAT
  1
GRIDFORMAT_BEGIN
 90
        0
 91
        1
 62
     0
 92
       -2
340
14
 93
        0
 40
1.125
309
GRIDFORMAT_END
 95
       16
302
GRIDFORMAT
  1
GRIDFORMAT_BEGIN
 90
        0
 91
        1
 62
     0
 92
       -2
340
14
 93
        0
 40
1.125
309
GRIDFORMAT_END
 95
       32
302
GRIDFORMAT
  1
GRIDFORMAT_BEGIN
 90
        0
 91
        1
 62
     0
 92
       -2
340
14
 93
        0
 40
1.125
309
GRIDFORMAT_END
309
TABLEFORMAT_END
  1
CELLSTYLE_BEGIN
 90
        3
 91
        2
300
_DATA
309
CELLSTYLE_END
  0
XRECORD
  5
7A2
102
{ACAD_REACTORS
330
162
102
}
330
162
100
AcDbXrecord
280
     1
102
ACAD_ROUNDTRIP_PRE2007_TABLESTYLE
 90
      512
 91
        0
  1

 92
      512
 93
        0
  2

 94
      512
 95
        0
  3

  0
XRECORD
  5
7B2
102
{ACAD_REACTORS
330
7B1
102
}
330
7B1
100
AcDbXrecord
280
     1
102
RTVSPropertyOp0
 70
     1
102
RTVSPropertyOp1
 70
     1
102
RTVSPropertyOp2
 70
     1
102
RTVSPropertyOp3
 70
     1
102
RTVSPropertyOp4
 70
     1
102
RTVSPropertyOp5
 70
     1
102
RTVSPropertyOp6
 70
     1
102
RTVSPropertyOp7
 70
     1
102
RTVSPropertyOp8
 70
     1
102
RTVSPropertyOp9
 70
     1
102
RTVSPropertyOp10
 70
     1
102
RTVSPropertyOp11
 70
     1
102
RTVSPropertyOp12
 70
     1
102
RTVSPropertyOp13
 70
     1
102
RTVSPropertyOp14
 70
     1
102
RTVSPropertyOp15
 70
     1
102
RTVSPropertyOp16
 70
     1
102
RTVSPropertyOp17
 70
     1
102
RTVSPropertyOp18
 70
     1
102
RTVSPropertyOp19
 70
     1
102
RTVSPropertyOp20
 70
     1
102
RTVSPropertyOp21
 70
     1
102
RTVSPropertyOp22
 70
     1
102
RTVSPropertyOp23
 70
     1
102
RTVSPropertyOp24
 70
     1
102
RTVSPropertyOp25
 70
     1
102
RTVSPropertyOp26
 70
     1
102
RTVSPropertyOp27
 70
     1
102
RTVSPropertyOp28
 70
     1
102
RTVSPropertyOp29
 70
     1
102
RTVSPropertyOp30
 70
     1
102
RTVSPropertyOp31
 70
     1
102
RTVSPropertyOp32
 70
     1
  0
XRECORD
  5
7B0
102
{ACAD_REACTORS
330
7AF
102
}
330
7AF
100
AcDbXrecord
280
     1
102
RTVSPropertyOp0
 70
     1
102
RTVSPropertyOp1
 70
     1
102
RTVSPropertyOp2
 70
     1
102
RTVSPropertyOp3
 70
     1
102
RTVSPropertyOp4
 70
     1
102
RTVSPropertyOp5
 70
     1
102
RTVSPropertyOp6
 70
     1
102
RTVSPropertyOp7
 70
     1
102
RTVSPropertyOp8
 70
     1
102
RTVSPropertyOp9
 70
     1
102
RTVSPropertyOp10
 70
     1
102
RTVSPropertyOp11
 70
     1
102
RTVSPropertyOp12
 70
     1
102
RTVSPropertyOp13
 70
     1
102
RTVSPropertyOp14
 70
     1
102
RTVSPropertyOp15
 70
     1
102
RTVSPropertyOp16
 70
     1
102
RTVSPropertyOp17
 70
     1
102
RTVSPropertyOp18
 70
     1
102
RTVSPropertyOp19
 70
     1
102
RTVSPropertyOp20
 70
     1
102
RTVSPropertyOp21
 70
     1
102
RTVSPropertyOp22
 70
     1
102
RTVSPropertyOp23
 70
     1
102
RTVSPropertyOp24
 70
     1
102
RTVSPropertyOp25
 70
     1
102
RTVSPropertyOp26
 70
     1
102
RTVSPropertyOp27
 70
     1
102
RTVSPropertyOp28
 70
     1
102
RTVSPropertyOp29
 70
     1
102
RTVSPropertyOp30
 70
     1
102
RTVSPropertyOp31
 70
     1
102
RTVSPropertyOp32
 70
     1
  0
XRECORD
  5
7BE
102
{ACAD_REACTORS
330
7BD
102
}
330
7BD
100
AcDbXrecord
280
     1
102
RTVSPropertyOp0
 70
     1
102
RTVSPropertyOp1
 70
     1
102
RTVSPropertyOp2
 70
     1
102
RTVSPropertyOp3
 70
     1
102
RTVSPropertyOp4
 70
     1
102
RTVSPropertyOp5
 70
     1
102
RTVSPropertyOp6
 70
     1
102
RTVSPropertyOp7
 70
     1
102
RTVSPropertyOp8
 70
     1
102
RTVSPropertyOp9
 70
     1
102
RTVSPropertyOp10
 70
     1
102
RTVSPropertyOp11
 70
     1
102
RTVSPropertyOp12
 70
     1
102
RTVSPropertyOp13
 70
     1
102
RTVSPropertyOp14
 70
     1
102
RTVSPropertyOp15
 70
     1
102
RTVSPropertyOp16
 70
     1
102
RTVSPropertyOp17
 70
     1
102
RTVSPropertyOp18
 70
     1
102
RTVSPropertyOp19
 70
     1
102
RTVSPropertyOp20
 70
     1
102
RTVSPropertyOp21
 70
     1
102
RTVSPropertyOp22
 70
     1
102
RTVSPropertyOp23
 70
     1
102
RTVSPropertyOp24
 70
     1
102
RTVSPropertyOp25
 70
     1
102
RTVSPropertyOp26
 70
     1
102
RTVSPropertyOp27
 70
     1
102
RTVSPropertyOp28
 70
     1
102
RTVSPropertyOp29
 70
     1
102
RTVSPropertyOp30
 70
     1
102
RTVSPropertyOp31
 70
     1
102
RTVSPropertyOp32
 70
     1
  0
XRECORD
  5
7C6
102
{ACAD_REACTORS
330
7C5
102
}
330
7C5
100
AcDbXrecord
280
     1
102
RTVSPropertyOp0
 70
     1
102
RTVSPropertyOp1
 70
     1
102
RTVSPropertyOp2
 70
     1
102
RTVSPropertyOp3
 70
     1
102
RTVSPropertyOp4
 70
     1
102
RTVSPropertyOp5
 70
     1
102
RTVSPropertyOp6
 70
     1
102
RTVSPropertyOp7
 70
     1
102
RTVSPropertyOp8
 70
     1
102
RTVSPropertyOp9
 70
     1
102
RTVSPropertyOp10
 70
     1
102
RTVSPropertyOp11
 70
     1
102
RTVSPropertyOp12
 70
     1
102
RTVSPropertyOp13
 70
     1
102
RTVSPropertyOp14
 70
     1
102
RTVSPropertyOp15
 70
     1
102
RTVSPropertyOp16
 70
     1
102
RTVSPropertyOp17
 70
     1
102
RTVSPropertyOp18
 70
     1
102
RTVSPropertyOp19
 70
     1
102
RTVSPropertyOp20
 70
     1
102
RTVSPropertyOp21
 70
     1
102
RTVSPropertyOp22
 70
     1
102
RTVSPropertyOp23
 70
     1
102
RTVSPropertyOp24
 70
     1
102
RTVSPropertyOp25
 70
     1
102
RTVSPropertyOp26
 70
     1
102
RTVSPropertyOp27
 70
     1
102
RTVSPropertyOp28
 70
     1
102
RTVSPropertyOp29
 70
     1
102
RTVSPropertyOp30
 70
     1
102
RTVSPropertyOp31
 70
     1
102
RTVSPropertyOp32
 70
     1
  0
XRECORD
  5
7B8
102
{ACAD_REACTORS
330
7B7
102
}
330
7B7
100
AcDbXrecord
280
     1
102
RTVSPropertyOp0
 70
     1
102
RTVSPropertyOp1
 70
     1
102
RTVSPropertyOp2
 70
     1
102
RTVSPropertyOp3
 70
     1
102
RTVSPropertyOp4
 70
     1
102
RTVSPropertyOp5
 70
     1
102
RTVSPropertyOp6
 70
     1
102
RTVSPropertyOp7
 70
     1
102
RTVSPropertyOp8
 70
     1
102
RTVSPropertyOp9
 70
     1
102
RTVSPropertyOp10
 70
     1
102
RTVSPropertyOp11
 70
     1
102
RTVSPropertyOp12
 70
     1
102
RTVSPropertyOp13
 70
     1
102
RTVSPropertyOp14
 70
     1
102
RTVSPropertyOp15
 70
     1
102
RTVSPropertyOp16
 70
     1
102
RTVSPropertyOp17
 70
     1
102
RTVSPropertyOp18
 70
     1
102
RTVSPropertyOp19
 70
     1
102
RTVSPropertyOp20
 70
     1
102
RTVSPropertyOp21
 70
     1
102
RTVSPropertyOp22
 70
     1
102
RTVSPropertyOp23
 70
     1
102
RTVSPropertyOp24
 70
     1
102
RTVSPropertyOp25
 70
     1
102
RTVSPropertyOp26
 70
     1
102
RTVSPropertyOp27
 70
     1
102
RTVSPropertyOp28
 70
     1
102
RTVSPropertyOp29
 70
     1
102
RTVSPropertyOp30
 70
     1
102
RTVSPropertyOp31
 70
     1
102
RTVSPropertyOp32
 70
     1
  0
XRECORD
  5
7BC
102
{ACAD_REACTORS
330
7BB
102
}
330
7BB
100
AcDbXrecord
280
     1
102
RTVSPropertyOp0
 70
     1
102
RTVSPropertyOp1
 70
     1
102
RTVSPropertyOp2
 70
     1
102
RTVSPropertyOp3
 70
     1
102
RTVSPropertyOp4
 70
     1
102
RTVSPropertyOp5
 70
     1
102
RTVSPropertyOp6
 70
     1
102
RTVSPropertyOp7
 70
     1
102
RTVSPropertyOp8
 70
     1
102
RTVSPropertyOp9
 70
     1
102
RTVSPropertyOp10
 70
     1
102
RTVSPropertyOp11
 70
     1
102
RTVSPropertyOp12
 70
     1
102
RTVSPropertyOp13
 70
     1
102
RTVSPropertyOp14
 70
     1
102
RTVSPropertyOp15
 70
     1
102
RTVSPropertyOp16
 70
     1
102
RTVSPropertyOp17
 70
     1
102
RTVSPropertyOp18
 70
     1
102
RTVSPropertyOp19
 70
     1
102
RTVSPropertyOp20
 70
     1
102
RTVSPropertyOp21
 70
     1
102
RTVSPropertyOp22
 70
     1
102
RTVSPropertyOp23
 70
     1
102
RTVSPropertyOp24
 70
     1
102
RTVSPropertyOp25
 70
     1
102
RTVSPropertyOp26
 70
     1
102
RTVSPropertyOp27
 70
     1
102
RTVSPropertyOp28
 70
     1
102
RTVSPropertyOp29
 70
     1
102
RTVSPropertyOp30
 70
     1
102
RTVSPropertyOp31
 70
     1
102
RTVSPropertyOp32
 70
     1
  0
XRECORD
  5
7CC
102
{ACAD_REACTORS
330
7CB
102
}
330
7CB
100
AcDbXrecord
280
     1
102
RTVSPropertyOp0
 70
     0
102
RTVSPropertyOp1
 70
     0
102
RTVSPropertyOp2
 70
     0
102
RTVSPropertyOp3
 70
     0
102
RTVSPropertyOp4
 70
     0
102
RTVSPropertyOp5
 70
     0
102
RTVSPropertyOp6
 70
     0
102
RTVSPropertyOp7
 70
     0
102
RTVSPropertyOp8
 70
     0
102
RTVSPropertyOp9
 70
     0
102
RTVSPropertyOp10
 70
     0
102
RTVSPropertyOp11
 70
     0
102
RTVSPropertyOp12
 70
     0
102
RTVSPropertyOp13
 70
     0
102
RTVSPropertyOp14
 70
     2
102
RTVSPropertyOp15
 70
     0
102
RTVSPropertyOp16
 70
     0
102
RTVSPropertyOp17
 70
     0
102
RTVSPropertyOp18
 70
     0
102
RTVSPropertyOp19
 70
     0
102
RTVSPropertyOp20
 70
     0
102
RTVSPropertyOp21
 70
     0
102
RTVSPropertyOp22
 70
     0
102
RTVSPropertyOp23
 70
     0
102
RTVSPropertyOp24
 70
     0
102
RTVSPropertyOp25
 70
     0
102
RTVSPropertyOp26
 70
     0
102
RTVSPropertyOp27
 70
     0
102
RTVSPropertyOp28
 70
     1
102
RTVSPropertyOp29
 70
     1
102
RTVSPropertyOp30
 70
     1
102
RTVSPropertyOp31
 70
     1
102
RTVSPropertyOp32
 70
     1
  0
XRECORD
  5
7C4
102
{ACAD_REACTORS
330
7C3
102
}
330
7C3
100
AcDbXrecord
280
     1
102
RTVSPropertyOp0
 70
     1
102
RTVSPropertyOp1
 70
     1
102
RTVSPropertyOp2
 70
     1
102
RTVSPropertyOp3
 70
     1
102
RTVSPropertyOp4
 70
     1
102
RTVSPropertyOp5
 70
     1
102
RTVSPropertyOp6
 70
     1
102
RTVSPropertyOp7
 70
     1
102
RTVSPropertyOp8
 70
     1
102
RTVSPropertyOp9
 70
     1
102
RTVSPropertyOp10
 70
     1
102
RTVSPropertyOp11
 70
     1
102
RTVSPropertyOp12
 70
     1
102
RTVSPropertyOp13
 70
     1
102
RTVSPropertyOp14
 70
     1
102
RTVSPropertyOp15
 70
     1
102
RTVSPropertyOp16
 70
     1
102
RTVSPropertyOp17
 70
     1
102
RTVSPropertyOp18
 70
     1
102
RTVSPropertyOp19
 70
     1
102
RTVSPropertyOp20
 70
     1
102
RTVSPropertyOp21
 70
     1
102
RTVSPropertyOp22
 70
     1
102
RTVSPropertyOp23
 70
     1
102
RTVSPropertyOp24
 70
     1
102
RTVSPropertyOp25
 70
     1
102
RTVSPropertyOp26
 70
     1
102
RTVSPropertyOp27
 70
     1
102
RTVSPropertyOp28
 70
     1
102
RTVSPropertyOp29
 70
     1
102
RTVSPropertyOp30
 70
     1
102
RTVSPropertyOp31
 70
     1
102
RTVSPropertyOp32
 70
     1
  0
XRECORD
  5
7A8
102
{ACAD_REACTORS
330
7A7
102
}
330
7A7
100
AcDbXrecord
280
     1
102
RTVSPropertyOp0
 70
     1
102
RTVSPropertyOp1
 70
     1
102
RTVSPropertyOp2
 70
     1
102
RTVSPropertyOp3
 70
     1
102
RTVSPropertyOp4
 70
     1
102
RTVSPropertyOp5
 70
     1
102
RTVSPropertyOp6
 70
     1
102
RTVSPropertyOp7
 70
     1
102
RTVSPropertyOp8
 70
     1
102
RTVSPropertyOp9
 70
     1
102
RTVSPropertyOp10
 70
     1
102
RTVSPropertyOp11
 70
     1
102
RTVSPropertyOp12
 70
     1
102
RTVSPropertyOp13
 70
     1
102
RTVSPropertyOp14
 70
     1
102
RTVSPropertyOp15
 70
     1
102
RTVSPropertyOp16
 70
     1
102
RTVSPropertyOp17
 70
     1
102
RTVSPropertyOp18
 70
     1
102
RTVSPropertyOp19
 70
     1
102
RTVSPropertyOp20
 70
     1
102
RTVSPropertyOp21
 70
     1
102
RTVSPropertyOp22
 70
     1
102
RTVSPropertyOp23
 70
     1
102
RTVSPropertyOp24
 70
     1
102
RTVSPropertyOp25
 70
     1
102
RTVSPropertyOp26
 70
     1
102
RTVSPropertyOp27
 70
     1
102
RTVSPropertyOp28
 70
     1
102
RTVSPropertyOp29
 70
     1
102
RTVSPropertyOp30
 70
     1
102
RTVSPropertyOp31
 70
     1
102
RTVSPropertyOp32
 70
     1
  0
XRECORD
  5
7AA
102
{ACAD_REACTORS
330
7A9
102
}
330
7A9
100
AcDbXrecord
280
     1
102
RTVSPropertyOp0
 70
     1
102
RTVSPropertyOp1
 70
     1
102
RTVSPropertyOp2
 70
     1
102
RTVSPropertyOp3
 70
     1
102
RTVSPropertyOp4
 70
     1
102
RTVSPropertyOp5
 70
     1
102
RTVSPropertyOp6
 70
     1
102
RTVSPropertyOp7
 70
     1
102
RTVSPropertyOp8
 70
     1
102
RTVSPropertyOp9
 70
     1
102
RTVSPropertyOp10
 70
     1
102
RTVSPropertyOp11
 70
     1
102
RTVSPropertyOp12
 70
     1
102
RTVSPropertyOp13
 70
     1
102
RTVSPropertyOp14
 70
     1
102
RTVSPropertyOp15
 70
     1
102
RTVSPropertyOp16
 70
     1
102
RTVSPropertyOp17
 70
     1
102
RTVSPropertyOp18
 70
     1
102
RTVSPropertyOp19
 70
     1
102
RTVSPropertyOp20
 70
     1
102
RTVSPropertyOp21
 70
     1
102
RTVSPropertyOp22
 70
     1
102
RTVSPropertyOp23
 70
     1
102
RTVSPropertyOp24
 70
     1
102
RTVSPropertyOp25
 70
     1
102
RTVSPropertyOp26
 70
     1
102
RTVSPropertyOp27
 70
     1
102
RTVSPropertyOp28
 70
     1
102
RTVSPropertyOp29
 70
     1
102
RTVSPropertyOp30
 70
     1
102
RTVSPropertyOp31
 70
     1
102
RTVSPropertyOp32
 70
     1
  0
XRECORD
  5
7AC
102
{ACAD_REACTORS
330
7AB
102
}
330
7AB
100
AcDbXrecord
280
     1
102
RTVSPropertyOp0
 70
     1
102
RTVSPropertyOp1
 70
     1
102
RTVSPropertyOp2
 70
     1
102
RTVSPropertyOp3
 70
     1
102
RTVSPropertyOp4
 70
     1
102
RTVSPropertyOp5
 70
     1
102
RTVSPropertyOp6
 70
     1
102
RTVSPropertyOp7
 70
     1
102
RTVSPropertyOp8
 70
     1
102
RTVSPropertyOp9
 70
     1
102
RTVSPropertyOp10
 70
     1
102
RTVSPropertyOp11
 70
     1
102
RTVSPropertyOp12
 70
     1
102
RTVSPropertyOp13
 70
     1
102
RTVSPropertyOp14
 70
     1
102
RTVSPropertyOp15
 70
     1
102
RTVSPropertyOp16
 70
     1
102
RTVSPropertyOp17
 70
     1
102
RTVSPropertyOp18
 70
     1
102
RTVSPropertyOp19
 70
     1
102
RTVSPropertyOp20
 70
     1
102
RTVSPropertyOp21
 70
     1
102
RTVSPropertyOp22
 70
     1
102
RTVSPropertyOp23
 70
     1
102
RTVSPropertyOp24
 70
     1
102
RTVSPropertyOp25
 70
     1
102
RTVSPropertyOp26
 70
     1
102
RTVSPropertyOp27
 70
     1
102
RTVSPropertyOp28
 70
     1
102
RTVSPropertyOp29
 70
     1
102
RTVSPropertyOp30
 70
     1
102
RTVSPropertyOp31
 70
     1
102
RTVSPropertyOp32
 70
     1
  0
XRECORD
  5
7AE
102
{ACAD_REACTORS
330
7AD
102
}
330
7AD
100
AcDbXrecord
280
     1
102
RTVSPropertyOp0
 70
     1
102
RTVSPropertyOp1
 70
     1
102
RTVSPropertyOp2
 70
     1
102
RTVSPropertyOp3
 70
     1
102
RTVSPropertyOp4
 70
     1
102
RTVSPropertyOp5
 70
     1
102
RTVSPropertyOp6
 70
     1
102
RTVSPropertyOp7
 70
     1
102
RTVSPropertyOp8
 70
     1
102
RTVSPropertyOp9
 70
     1
102
RTVSPropertyOp10
 70
     1
102
RTVSPropertyOp11
 70
     1
102
RTVSPropertyOp12
 70
     1
102
RTVSPropertyOp13
 70
     1
102
RTVSPropertyOp14
 70
     1
102
RTVSPropertyOp15
 70
     1
102
RTVSPropertyOp16
 70
     1
102
RTVSPropertyOp17
 70
     1
102
RTVSPropertyOp18
 70
     1
102
RTVSPropertyOp19
 70
     1
102
RTVSPropertyOp20
 70
     1
102
RTVSPropertyOp21
 70
     1
102
RTVSPropertyOp22
 70
     1
102
RTVSPropertyOp23
 70
     1
102
RTVSPropertyOp24
 70
     1
102
RTVSPropertyOp25
 70
     1
102
RTVSPropertyOp26
 70
     1
102
RTVSPropertyOp27
 70
     1
102
RTVSPropertyOp28
 70
     1
102
RTVSPropertyOp29
 70
     1
102
RTVSPropertyOp30
 70
     1
102
RTVSPropertyOp31
 70
     1
102
RTVSPropertyOp32
 70
     1
  0
XRECORD
  5
7B6
102
{ACAD_REACTORS
330
7B5
102
}
330
7B5
100
AcDbXrecord
280
     1
102
RTVSPropertyOp0
 70
     1
102
RTVSPropertyOp1
 70
     1
102
RTVSPropertyOp2
 70
     1
102
RTVSPropertyOp3
 70
     1
102
RTVSPropertyOp4
 70
     1
102
RTVSPropertyOp5
 70
     1
102
RTVSPropertyOp6
 70
     1
102
RTVSPropertyOp7
 70
     1
102
RTVSPropertyOp8
 70
     1
102
RTVSPropertyOp9
 70
     1
102
RTVSPropertyOp10
 70
     1
102
RTVSPropertyOp11
 70
     1
102
RTVSPropertyOp12
 70
     1
102
RTVSPropertyOp13
 70
     1
102
RTVSPropertyOp14
 70
     1
102
RTVSPropertyOp15
 70
     1
102
RTVSPropertyOp16
 70
     1
102
RTVSPropertyOp17
 70
     1
102
RTVSPropertyOp18
 70
     1
102
RTVSPropertyOp19
 70
     1
102
RTVSPropertyOp20
 70
     1
102
RTVSPropertyOp21
 70
     1
102
RTVSPropertyOp22
 70
     1
102
RTVSPropertyOp23
 70
     1
102
RTVSPropertyOp24
 70
     1
102
RTVSPropertyOp25
 70
     1
102
RTVSPropertyOp26
 70
     1
102
RTVSPropertyOp27
 70
     1
102
RTVSPropertyOp28
 70
     1
102
RTVSPropertyOp29
 70
     1
102
RTVSPropertyOp30
 70
     1
102
RTVSPropertyOp31
 70
     1
102
RTVSPropertyOp32
 70
     1
  0
XRECORD
  5
7C8
102
{ACAD_REACTORS
330
7C7
102
}
330
7C7
100
AcDbXrecord
280
     1
102
RTVSPropertyOp0
 70
     0
102
RTVSPropertyOp1
 70
     0
102
RTVSPropertyOp2
 70
     0
102
RTVSPropertyOp3
 70
     0
102
RTVSPropertyOp4
 70
     0
102
RTVSPropertyOp5
 70
     0
102
RTVSPropertyOp6
 70
     0
102
RTVSPropertyOp7
 70
     0
102
RTVSPropertyOp8
 70
     0
102
RTVSPropertyOp9
 70
     0
102
RTVSPropertyOp10
 70
     0
102
RTVSPropertyOp11
 70
     0
102
RTVSPropertyOp12
 70
     0
102
RTVSPropertyOp13
 70
     0
102
RTVSPropertyOp14
 70
     2
102
RTVSPropertyOp15
 70
     0
102
RTVSPropertyOp16
 70
     0
102
RTVSPropertyOp17
 70
     0
102
RTVSPropertyOp18
 70
     0
102
RTVSPropertyOp19
 70
     0
102
RTVSPropertyOp20
 70
     0
102
RTVSPropertyOp21
 70
     0
102
RTVSPropertyOp22
 70
     0
102
RTVSPropertyOp23
 70
     0
102
RTVSPropertyOp24
 70
     0
102
RTVSPropertyOp25
 70
     0
102
RTVSPropertyOp26
 70
     0
102
RTVSPropertyOp27
 70
     0
102
RTVSPropertyOp28
 70
     1
102
RTVSPropertyOp29
 70
     1
102
RTVSPropertyOp30
 70
     1
102
RTVSPropertyOp31
 70
     1
102
RTVSPropertyOp32
 70
     1
  0
XRECORD
  5
7C2
102
{ACAD_REACTORS
330
7C1
102
}
330
7C1
100
AcDbXrecord
280
     1
102
RTVSPropertyOp0
 70
     1
102
RTVSPropertyOp1
 70
     1
102
RTVSPropertyOp2
 70
     1
102
RTVSPropertyOp3
 70
     1
102
RTVSPropertyOp4
 70
     1
102
RTVSPropertyOp5
 70
     1
102
RTVSPropertyOp6
 70
     1
102
RTVSPropertyOp7
 70
     1
102
RTVSPropertyOp8
 70
     1
102
RTVSPropertyOp9
 70
     1
102
RTVSPropertyOp10
 70
     1
102
RTVSPropertyOp11
 70
     1
102
RTVSPropertyOp12
 70
     1
102
RTVSPropertyOp13
 70
     1
102
RTVSPropertyOp14
 70
     1
102
RTVSPropertyOp15
 70
     1
102
RTVSPropertyOp16
 70
     1
102
RTVSPropertyOp17
 70
     1
102
RTVSPropertyOp18
 70
     1
102
RTVSPropertyOp19
 70
     1
102
RTVSPropertyOp20
 70
     1
102
RTVSPropertyOp21
 70
     1
102
RTVSPropertyOp22
 70
     1
102
RTVSPropertyOp23
 70
     1
102
RTVSPropertyOp24
 70
     1
102
RTVSPropertyOp25
 70
     1
102
RTVSPropertyOp26
 70
     1
102
RTVSPropertyOp27
 70
     1
102
RTVSPropertyOp28
 70
     1
102
RTVSPropertyOp29
 70
     1
102
RTVSPropertyOp30
 70
     1
102
RTVSPropertyOp31
 70
     1
102
RTVSPropertyOp32
 70
     1
  0
XRECORD
  5
7CA
102
{ACAD_REACTORS
330
7C9
102
}
330
7C9
100
AcDbXrecord
280
     1
102
RTVSPropertyOp0
 70
     0
102
RTVSPropertyOp1
 70
     0
102
RTVSPropertyOp2
 70
     0
102
RTVSPropertyOp3
 70
     0
102
RTVSPropertyOp4
 70
     0
102
RTVSPropertyOp5
 70
     0
102
RTVSPropertyOp6
 70
     0
102
RTVSPropertyOp7
 70
     0
102
RTVSPropertyOp8
 70
     0
102
RTVSPropertyOp9
 70
     0
102
RTVSPropertyOp10
 70
     0
102
RTVSPropertyOp11
 70
     0
102
RTVSPropertyOp12
 70
     0
102
RTVSPropertyOp13
 70
     0
102
RTVSPropertyOp14
 70
     2
102
RTVSPropertyOp15
 70
     0
102
RTVSPropertyOp16
 70
     0
102
RTVSPropertyOp17
 70
     0
102
RTVSPropertyOp18
 70
     0
102
RTVSPropertyOp19
 70
     0
102
RTVSPropertyOp20
 70
     0
102
RTVSPropertyOp21
 70
     0
102
RTVSPropertyOp22
 70
     0
102
RTVSPropertyOp23
 70
     0
102
RTVSPropertyOp24
 70
     0
102
RTVSPropertyOp25
 70
     0
102
RTVSPropertyOp26
 70
     0
102
RTVSPropertyOp27
 70
     0
102
RTVSPropertyOp28
 70
     1
102
RTVSPropertyOp29
 70
     1
102
RTVSPropertyOp30
 70
     1
102
RTVSPropertyOp31
 70
     1
102
RTVSPropertyOp32
 70
     1
  0
XRECORD
  5
7BA
102
{ACAD_REACTORS
330
7B9
102
}
330
7B9
100
AcDbXrecord
280
     1
102
RTVSPropertyOp0
 70
     1
102
RTVSPropertyOp1
 70
     1
102
RTVSPropertyOp2
 70
     1
102
RTVSPropertyOp3
 70
     1
102
RTVSPropertyOp4
 70
     1
102
RTVSPropertyOp5
 70
     1
102
RTVSPropertyOp6
 70
     1
102
RTVSPropertyOp7
 70
     1
102
RTVSPropertyOp8
 70
     1
102
RTVSPropertyOp9
 70
     1
102
RTVSPropertyOp10
 70
     1
102
RTVSPropertyOp11
 70
     1
102
RTVSPropertyOp12
 70
     1
102
RTVSPropertyOp13
 70
     1
102
RTVSPropertyOp14
 70
     1
102
RTVSPropertyOp15
 70
     1
102
RTVSPropertyOp16
 70
     1
102
RTVSPropertyOp17
 70
     1
102
RTVSPropertyOp18
 70
     1
102
RTVSPropertyOp19
 70
     1
102
RTVSPropertyOp20
 70
     1
102
RTVSPropertyOp21
 70
     1
102
RTVSPropertyOp22
 70
     1
102
RTVSPropertyOp23
 70
     1
102
RTVSPropertyOp24
 70
     1
102
RTVSPropertyOp25
 70
     1
102
RTVSPropertyOp26
 70
     1
102
RTVSPropertyOp27
 70
     1
102
RTVSPropertyOp28
 70
     1
102
RTVSPropertyOp29
 70
     1
102
RTVSPropertyOp30
 70
     1
102
RTVSPropertyOp31
 70
     1
102
RTVSPropertyOp32
 70
     1
  0
XRECORD
  5
7D6
102
{ACAD_REACTORS
330
7D5
102
}
330
7D5
100
AcDbXrecord
280
     1
102
RTVSPropertyOp0
 70
     1
102
RTVSPropertyOp1
 70
     1
102
RTVSPropertyOp2
 70
     1
102
RTVSPropertyOp3
 70
     1
102
RTVSPropertyOp4
 70
     1
102
RTVSPropertyOp5
 70
     1
102
RTVSPropertyOp6
 70
     1
102
RTVSPropertyOp7
 70
     1
102
RTVSPropertyOp8
 70
     1
102
RTVSPropertyOp9
 70
     1
102
RTVSPropertyOp10
 70
     1
102
RTVSPropertyOp11
 70
     1
102
RTVSPropertyOp12
 70
     1
102
RTVSPropertyOp13
 70
     1
102
RTVSPropertyOp14
 70
     1
102
RTVSPropertyOp15
 70
     1
102
RTVSPropertyOp16
 70
     1
102
RTVSPropertyOp17
 70
     1
102
RTVSPropertyOp18
 70
     1
102
RTVSPropertyOp19
 70
     1
102
RTVSPropertyOp20
 70
     1
102
RTVSPropertyOp21
 70
     1
102
RTVSPropertyOp22
 70
     1
102
RTVSPropertyOp23
 70
     1
102
RTVSPropertyOp24
 70
     1
102
RTVSPropertyOp25
 70
     1
102
RTVSPropertyOp26
 70
     1
102
RTVSPropertyOp27
 70
     1
102
RTVSPropertyOp28
 70
     1
102
RTVSPropertyOp29
 70
     1
102
RTVSPropertyOp30
 70
     1
102
RTVSPropertyOp31
 70
     1
102
RTVSPropertyOp32
 70
     1
  0
XRECORD
  5
7D4
102
{ACAD_REACTORS
330
7D3
102
}
330
7D3
100
AcDbXrecord
280
     1
102
RTVSPropertyOp0
 70
     1
102
RTVSPropertyOp1
 70
     1
102
RTVSPropertyOp2
 70
     1
102
RTVSPropertyOp3
 70
     1
102
RTVSPropertyOp4
 70
     1
102
RTVSPropertyOp5
 70
     1
102
RTVSPropertyOp6
 70
     1
102
RTVSPropertyOp7
 70
     1
102
RTVSPropertyOp8
 70
     1
102
RTVSPropertyOp9
 70
     1
102
RTVSPropertyOp10
 70
     1
102
RTVSPropertyOp11
 70
     1
102
RTVSPropertyOp12
 70
     1
102
RTVSPropertyOp13
 70
     1
102
RTVSPropertyOp14
 70
     1
102
RTVSPropertyOp15
 70
     1
102
RTVSPropertyOp16
 70
     1
102
RTVSPropertyOp17
 70
     1
102
RTVSPropertyOp18
 70
     1
102
RTVSPropertyOp19
 70
     1
102
RTVSPropertyOp20
 70
     1
102
RTVSPropertyOp21
 70
     1
102
RTVSPropertyOp22
 70
     1
102
RTVSPropertyOp23
 70
     1
102
RTVSPropertyOp24
 70
     1
102
RTVSPropertyOp25
 70
     1
102
RTVSPropertyOp26
 70
     1
102
RTVSPropertyOp27
 70
     1
102
RTVSPropertyOp28
 70
     1
102
RTVSPropertyOp29
 70
     1
102
RTVSPropertyOp30
 70
     1
102
RTVSPropertyOp31
 70
     1
102
RTVSPropertyOp32
 70
     1
  0
XRECORD
  5
7CE
102
{ACAD_REACTORS
330
7CD
102
}
330
7CD
100
AcDbXrecord
280
     1
102
RTVSPropertyOp0
 70
     1
102
RTVSPropertyOp1
 70
     1
102
RTVSPropertyOp2
 70
     1
102
RTVSPropertyOp3
 70
     1
102
RTVSPropertyOp4
 70
     1
102
RTVSPropertyOp5
 70
     1
102
RTVSPropertyOp6
 70
     1
102
RTVSPropertyOp7
 70
     1
102
RTVSPropertyOp8
 70
     1
102
RTVSPropertyOp9
 70
     1
102
RTVSPropertyOp10
 70
     1
102
RTVSPropertyOp11
 70
     1
102
RTVSPropertyOp12
 70
     1
102
RTVSPropertyOp13
 70
     1
102
RTVSPropertyOp14
 70
     1
102
RTVSPropertyOp15
 70
     1
102
RTVSPropertyOp16
 70
     1
102
RTVSPropertyOp17
 70
     1
102
RTVSPropertyOp18
 70
     1
102
RTVSPropertyOp19
 70
     1
102
RTVSPropertyOp20
 70
     1
102
RTVSPropertyOp21
 70
     1
102
RTVSPropertyOp22
 70
     1
102
RTVSPropertyOp23
 70
     1
102
RTVSPropertyOp24
 70
     1
102
RTVSPropertyOp25
 70
     1
102
RTVSPropertyOp26
 70
     1
102
RTVSPropertyOp27
 70
     1
102
RTVSPropertyOp28
 70
     1
102
RTVSPropertyOp29
 70
     1
102
RTVSPropertyOp30
 70
     1
102
RTVSPropertyOp31
 70
     1
102
RTVSPropertyOp32
 70
     1
  0
XRECORD
  5
7D0
102
{ACAD_REACTORS
330
7CF
102
}
330
7CF
100
AcDbXrecord
280
     1
102
RTVSPropertyOp0
 70
     1
102
RTVSPropertyOp1
 70
     1
102
RTVSPropertyOp2
 70
     1
102
RTVSPropertyOp3
 70
     1
102
RTVSPropertyOp4
 70
     1
102
RTVSPropertyOp5
 70
     1
102
RTVSPropertyOp6
 70
     1
102
RTVSPropertyOp7
 70
     1
102
RTVSPropertyOp8
 70
     1
102
RTVSPropertyOp9
 70
     1
102
RTVSPropertyOp10
 70
     1
102
RTVSPropertyOp11
 70
     1
102
RTVSPropertyOp12
 70
     1
102
RTVSPropertyOp13
 70
     1
102
RTVSPropertyOp14
 70
     1
102
RTVSPropertyOp15
 70
     1
102
RTVSPropertyOp16
 70
     1
102
RTVSPropertyOp17
 70
     1
102
RTVSPropertyOp18
 70
     1
102
RTVSPropertyOp19
 70
     1
102
RTVSPropertyOp20
 70
     1
102
RTVSPropertyOp21
 70
     1
102
RTVSPropertyOp22
 70
     1
102
RTVSPropertyOp23
 70
     1
102
RTVSPropertyOp24
 70
     1
102
RTVSPropertyOp25
 70
     1
102
RTVSPropertyOp26
 70
     1
102
RTVSPropertyOp27
 70
     1
102
RTVSPropertyOp28
 70
     1
102
RTVSPropertyOp29
 70
     1
102
RTVSPropertyOp30
 70
     1
102
RTVSPropertyOp31
 70
     1
102
RTVSPropertyOp32
 70
     1
  0
XRECORD
  5
7C0
102
{ACAD_REACTORS
330
7BF
102
}
330
7BF
100
AcDbXrecord
280
     1
102
RTVSPropertyOp0
 70
     1
102
RTVSPropertyOp1
 70
     1
102
RTVSPropertyOp2
 70
     1
102
RTVSPropertyOp3
 70
     1
102
RTVSPropertyOp4
 70
     1
102
RTVSPropertyOp5
 70
     1
102
RTVSPropertyOp6
 70
     1
102
RTVSPropertyOp7
 70
     1
102
RTVSPropertyOp8
 70
     1
102
RTVSPropertyOp9
 70
     1
102
RTVSPropertyOp10
 70
     1
102
RTVSPropertyOp11
 70
     1
102
RTVSPropertyOp12
 70
     1
102
RTVSPropertyOp13
 70
     1
102
RTVSPropertyOp14
 70
     1
102
RTVSPropertyOp15
 70
     1
102
RTVSPropertyOp16
 70
     1
102
RTVSPropertyOp17
 70
     1
102
RTVSPropertyOp18
 70
     1
102
RTVSPropertyOp19
 70
     1
102
RTVSPropertyOp20
 70
     1
102
RTVSPropertyOp21
 70
     1
102
RTVSPropertyOp22
 70
     1
102
RTVSPropertyOp23
 70
     1
102
RTVSPropertyOp24
 70
     1
102
RTVSPropertyOp25
 70
     1
102
RTVSPropertyOp26
 70
     1
102
RTVSPropertyOp27
 70
     1
102
RTVSPropertyOp28
 70
     1
102
RTVSPropertyOp29
 70
     1
102
RTVSPropertyOp30
 70
     1
102
RTVSPropertyOp31
 70
     1
102
RTVSPropertyOp32
 70
     1
  0
XRECORD
  5
7B4
102
{ACAD_REACTORS
330
7B3
102
}
330
7B3
100
AcDbXrecord
280
     1
102
RTVSPropertyOp0
 70
     1
102
RTVSPropertyOp1
 70
     1
102
RTVSPropertyOp2
 70
     1
102
RTVSPropertyOp3
 70
     1
102
RTVSPropertyOp4
 70
     1
102
RTVSPropertyOp5
 70
     1
102
RTVSPropertyOp6
 70
     1
102
RTVSPropertyOp7
 70
     1
102
RTVSPropertyOp8
 70
     1
102
RTVSPropertyOp9
 70
     1
102
RTVSPropertyOp10
 70
     1
102
RTVSPropertyOp11
 70
     1
102
RTVSPropertyOp12
 70
     1
102
RTVSPropertyOp13
 70
     1
102
RTVSPropertyOp14
 70
     1
102
RTVSPropertyOp15
 70
     1
102
RTVSPropertyOp16
 70
     1
102
RTVSPropertyOp17
 70
     1
102
RTVSPropertyOp18
 70
     1
102
RTVSPropertyOp19
 70
     1
102
RTVSPropertyOp20
 70
     1
102
RTVSPropertyOp21
 70
     1
102
RTVSPropertyOp22
 70
     1
102
RTVSPropertyOp23
 70
     1
102
RTVSPropertyOp24
 70
     1
102
RTVSPropertyOp25
 70
     1
102
RTVSPropertyOp26
 70
     1
102
RTVSPropertyOp27
 70
     1
102
RTVSPropertyOp28
 70
     1
102
RTVSPropertyOp29
 70
     1
102
RTVSPropertyOp30
 70
     1
102
RTVSPropertyOp31
 70
     1
102
RTVSPropertyOp32
 70
     1
  0
XRECORD
  5
7D2
102
{ACAD_REACTORS
330
7D1
102
}
330
7D1
100
AcDbXrecord
280
     1
102
RTVSPropertyOp0
 70
     1
102
RTVSPropertyOp1
 70
     1
102
RTVSPropertyOp2
 70
     1
102
RTVSPropertyOp3
 70
     1
102
RTVSPropertyOp4
 70
     1
102
RTVSPropertyOp5
 70
     1
102
RTVSPropertyOp6
 70
     1
102
RTVSPropertyOp7
 70
     1
102
RTVSPropertyOp8
 70
     1
102
RTVSPropertyOp9
 70
     1
102
RTVSPropertyOp10
 70
     1
102
RTVSPropertyOp11
 70
     1
102
RTVSPropertyOp12
 70
     1
102
RTVSPropertyOp13
 70
     1
102
RTVSPropertyOp14
 70
     1
102
RTVSPropertyOp15
 70
     1
102
RTVSPropertyOp16
 70
     1
102
RTVSPropertyOp17
 70
     1
102
RTVSPropertyOp18
 70
     1
102
RTVSPropertyOp19
 70
     1
102
RTVSPropertyOp20
 70
     1
102
RTVSPropertyOp21
 70
     1
102
RTVSPropertyOp22
 70
     1
102
RTVSPropertyOp23
 70
     1
102
RTVSPropertyOp24
 70
     1
102
RTVSPropertyOp25
 70
     1
102
RTVSPropertyOp26
 70
     1
102
RTVSPropertyOp27
 70
     1
102
RTVSPropertyOp28
 70
     1
102
RTVSPropertyOp29
 70
     1
102
RTVSPropertyOp30
 70
     1
102
RTVSPropertyOp31
 70
     1
102
RTVSPropertyOp32
 70
     1
  0
ENDSEC
  0
EOF
